Oops, an error
Loading. Please wait.

Pray Tab

481 views 1 this week
no commentswrite comment
1 2 3 4 5
2 more votes to show rating
add to favorites
launch autoscroll
font size
0
reset
how to read this tab
guitar tuner
Autoscroll
slow
fast
+/-
esc
set tempo
stop
Help us to improve Ultimate-Guitar.com Take our survey!
×
Capo
2nd fret
Song Title: Pray
Artist: Paul Colman Trio
Tabbed by: Dan 

CAPO ON 2ND FRET

   C    Fadd9    Em7     Am7     G
E|-3------3-------3-------3------3----------|
B|-1------1-------0-------1------3----------|
G|-0------2-------0-------2------0----------|
D|-2------3-------0-------2------0----------|
A|-3------x-------2-------0------2----------|
E|-x------x-------0-------x------3----------|

Intro (Play 2x)
   C           Em7           Am7            F
E|---3------------3--------------3------------3-----3-----|
B|-----1-------------1--------------1-----------1-----1---|
G|------------------------------------------------0-------|
D|---------0-2--------------0---------------3-----------3-|
A|-3-----3-----2--------2-3---0-------0-2-3---------------|
E|--------------------------------------------------------|

Do doo doo doo part
C     Em7    Am7     Fadd9
C     Em7    Am7     Fadd9

Verse
C    Em7    C     Am7    G C
C    Em7    Fadd9      G
C    Em7    C     Am7  G C
C    Em7    Fadd9      G

Chorus
C     G     Am7    Fadd9
C     G     Am7    Fadd9

Do doo doo doo part
C     G     Am7     Fadd9
C     G     Am7     Fadd9

Verse
C     Em7     C    Am7  G C 
C     Em7     Fadd9     G

Chorus
C     G      Am7     Fadd9
C     G      Am7     Fadd9
C     G      Am7     Fadd9
C     G      Am7     Fadd9

Bridge
Am    C     Fadd9     C   Em7
Am    C     Fadd9     C   Em7
Am    C     Fadd9     C   Em7
Fadd9              G

Chorus
C     G      Am7     Fadd9
C     G      Am7     Fadd9
C     G      Am7     Fadd9
C     G      Am7     Fadd9

Do doo doo doo part (play until end, about 12x)
C    Em7     Am7     Fadd9


The G and the Em7 are interchangeable at parts b/c 
I can't tell the difference, but you definitely play a G at the
end of the verse.  It's pretty close all in all, email me with problems.
-Dan
Suggest correction
Give kudos to tab author, rate the tab!
1 2 3 4 5
comments
print report bad tab
guest
You may want to rate the tab now too:
select rating
Wanna post a correction for this tab? Suggest correction