Oops, an error
Loading. Please wait.

The True Sea Tab

79 views 9 this week
no commentswrite comment
1 2 3 4 5
2 more votes to show rating
add to favorites
launch autoscroll
font size
0
reset
how to read this tab
guitar tuner
Autoscroll
slow
fast
+/-
esc
set tempo
stop
Help us to improve Ultimate-Guitar.com Take our survey!
×
Author
Difficulty
Capo
intermediate
3rd fret
Artist: Paul Dempsey
Album: The True Sea
Song: The True Sea (https://www.youtube.com/watch?v=zzXZTSw6A5I)
Tabbed by: Tristan Lee
Date: 14 Oct 2016

Capo 3rd Fret

h - Hammer on
s - Slide

Intro Gm D# F

Gm                           F
Just get me off of this ocean
                            D#
Want to move on the true sea
Gm                              F
There's no above or no below, just you
                  D#
Just you beside me

Gm                                 F
Just take me over that last horizon
                             D#
Where this light's never been
Gm             Cm                 D#
Into a roaring black silence no shell           (Not so sure here what 
Bb               F                               the second chord is)
Would even attempt to repeat

Gm D# F x2

Gm                           F
Just get me out of this hotel
                          D#
Check me out of this sleep
Gm      
Been treading water
                 F                                     D#
Hearing recorded messages inside this reoccurring dream

Gm                                   F
My starry-eyed compass keeps a secret
                              D#
No starry-eyed theory can take
Gm                   Cm                  D#               Bb
And a promise she'll keep until the true sea gathers us up
   F
In a tidal wave

[Interlude]
e|---0--0-0--0-3-0--0-3-0-4-0-3-0----|      (In relation to the Capo)
B|-----------------------------------|
G|-----------------------------------|      On the High e string it also goes up to the 6th fret
D|-----------------------------------|
A|-----------------------------------|
E|-----------------------------------|

[Chorus]
            D#      F            Gm                Bb
It makes the ocean seem like a drop in the ocean
            D#      F            Gm                Bb
It makes the ocean seem like a drop in the ocean
            D#      F            Gm                Bb
She makes the ocean seem like a drop in the ocean
            D#      F            F#m                
She makes the ocean seem like a drop in the ocean

[Solo] (It’s not 100% correct but it’s close-ish)
e|---------7--12--7---------------------------------------|
B|------8------------8-----10s12--8-----------------------|
G|---9------------------9------------9--------7-----7--9--|
D|--------------------------------------9--9-----7--------|
A|--------------------------------------------------------|
E|--------------------------------------------------------|

e|-------------------------------------------------------------------7-7-7--7-8-8-8-7--------|
B|---8--8--8--8h7-----------7--7--7--7h8--7--8--7--8--10------8--10--------------------8-----|
G|-----------------7----------------------------------------------------------------------9--|
D|--------------------7----------------------------------------------------------------------|
A|-------------------------------------------------------------------------------------------|
E|-------------------------------------------------------------------------------------------|

e|-----------7-8-7--------12----15--14--10--12--14--12--10--8--5--|
B|--------8---------8---------------------------------------------|
G|-----9---------------9--------12--11--7---9---11--9---7---5--2--|
D|----------------------------------------------------------------|
A|----------------------------------------------------------------|
E|----------------------------------------------------------------|

I'll follow you overboard...
e|---------------3--|---------------3--2--3--5-----|---------------3--2--3--5-----0--2--3-----|
B|------------3-----|------------3--------------4--|------------3--------------4-----------1--|
G|---0--2--4--------|---0--2--4--------------------|---0--2--4--------------------------------|   x2
D|------------------|------------------------------|------------------------------------------|
A|------------------|------------------------------|------------------------------------------|
E|------------------|------------------------------|------------------------------------------|

I'll follow you overboard
In the collapsing waves
I'll find you in the dark
Like a stowaway

Just leave ourselves unfinished
Just leave an empty page
And let those sweeping arms just carry us away
Carry us away

[Chorus]
            D#      F            Gm                Bb
It makes the ocean seem like a drop in the ocean
            D#      F            Gm                Bb
It makes the ocean seem like a drop in the ocean
            D#      F            Gm                Bb
She makes the ocean seem like a drop in the ocean
            D#      F            Gm                Bb
She makes the ocean seem like a drop in the ocean
            D#      F            Gm                Bb
She makes the ocean seem like a drop in the ocean
            D#      F            Gm                Bb
She makes the ocean seem like a drop in the ocean
            D#      F            Gm                Bb
She makes the ocean seem like a drop in the ocean
            D#      F            F#m                
She makes the ocean seem like a drop in the ocean

Outro
Gm D# F
Suggest correction
Give kudos to tab author, rate the tab!
1 2 3 4 5
comments
print report bad tab
guest
You may want to rate the tab now too:
select rating
Wanna post a correction for this tab? Suggest correction