Oops, an error
Loading. Please wait.

2 Become 1 solo tab

version 1
version 1

Solo

Interactive

11,825 views 9 this week
no commentswrite comment
1 2 3 4 5
x 4
add to favorites
×
Save as Personal and add changes to this tab that will be seen only by you. Learn more ›
×
You can save this tab as Personal to edit and correct it or add notes. All changes will be seen only by you. Learn more »
launch autoscroll
font size
0
reset
how to read this tab
guitar tuner
edit
Autoscroll
slow
fast
+/-
esc
set tempo
stop
Author
Difficulty
              Paul Gilbert - 2 Become 1

            Q     Q        S  S Q.     H
|-----------------------|-----------------------|
|-----------------------|--7s-9-L------5--------|
|-----------------------|-----------------------|
|-----------------------|--4s-6-L------2--------|
|-----------------------|-----------------------|
|----------------16\----|-----------------------|


  S   S  Q.      E  E  E  E      S  S Q.     H
------------------------------|-----------------------|
------------------------------|-----------------------|
--------------------9--L--L---|--------------4--------|
--9s-11--L--------------------|--4s-6-L---------------|
----------------/7--L--L--L\--|-----------------------|
--7s--9--L--------------------|-----------------------|


  E   E  E   E   E  E  E   E     H.           Q       W
------------------------------|--------------------|-------------------|
-----------------------7--10--|--9-----------------|-------------------|
---------4h--6s--7--9---------|--------------------|-------------------|
--6h--7-----------------------|--------------------|-------------------|
------------------------------|--------------------|-------------------|
------------------------------|--------------------|-------------------|


AND THEN...


  S S   S  S  Q    S  S  S  S  Q        Q    Q    H           W
----------12--L------12p-9----------|----------------------|-------------------|
----9h-10------------------12--L----|---L------------------|-------------------|
------------------------------------|----------------------|-------------------|
------------------------------------|----------------------|-------------------|
------------------------------------|----------------------|-------------------|
------------------------------------|----------------------|-------------------|


  H        Q    S  S S S    S  S  E   E    E      W
-------------------------|---------------------|-------------------|
-------------------------|-------10---L~---L\--|-------------------|
----------------7p-6-----|--7s-9---------------|-------------------|
---------------------9-7-|---------------------|-------------------|
-------------------------|---------------------|-------------------|
-------------------------|---------------------|-------------------|


THE SOLO


  W                   H        Q     E   E
-------------------|------------------------|
-------------------|------------------------|
-------------------|------------------------|
-------------------|------------------------|
-------------------|------------------------|
-------------------|----------------17\-----|


                |---3--|
  E   E   Q     S   S  S S   S  S   E.
-----------------------------------------|
-----------------------------------------|
--4b--L~--L~----4br-Lp-2-4-<>2b-Lpb-L~---|
-----------------------------------------|
-----------------------------------------|
-----------------------------------------|


                 |---3--|
   S  S S S S  S S   S  S   S S S S S   S    S S
-------------------------------------------------|
-------------------------------------------------|
--(0)-------2b---4br-Lp-2-<>4-2-----2-<>2b-------|
--------2-4----4------------------4--------<>4---|
------4-------------------------x--------------4-|
-------------------------------------------------|


                                  ^        W
           |---3--|
  S S S  S S   S  S E   Q      S  S S S    E.  T  T S S S S S T  T S S S S S S
----------------------------------5-4---|----------------------------------5-4-|
--------------------5b--Lpb----L~-x---5-|--------------------------5---5-7-----|
------2b---4br-Lp-2---------------x-----|--4---6p-4---4-------4s-6---6---------|
--2-4----4------------------------------|-----------7---7-4-7------------------|
----------------------------------------|--------------------------------------|
----------------------------------------|--------------------------------------|


                                W       W
                                                       |--3--|
  S S S S S  E  S  S    T T S S Q       H         E    S  S  S  E    S  S
------4-5-5s-7--7b-Lpbr-L-5-7-5------|----------------------12-14~--12-14S-|
--5-7---------------------------7----|--L-------------12-14----------------|
-------------------------------------|-------------------------------------|
-------------------------------------|-------------------------------------|
-------------------------------------|-------------------------------------|
-------------------------------------|-----------14\-----------------------|


          |--3--|
  S  S    S  S  S S  S  S S  S    S  S  S    S T   T  S  S
--9-12-9g12p-9----9-------9--------------------------------|
---------------12---10-12---12br--L-10-12br--L-------10-12-|
-----------------------------------------------9h-11-------|
-----------------------------------------------------------|
-----------------------------------------------------------|
-----------------------------------------------------------|


                                       |--3--|  |--3--|  |--3--|
   E    S   T   T  S  S  E     S    S  S  S  S  S  S  S  S  S  S
-----------------------------(14)--------------------------------|
--10~---L\-------------------------------------------------------|
------------------14-16-14~-----------------14-16-14----14-16-14-|
-----------14s-16---------------------14-16----------16----------|
----------------------------------/16----------------------------|
-----------------------------------------------------------------|


   |----3---|            |--3--|                     |--3--|
   S   S    S  E    E    S  S  S  E    E    S   S    S  S  S
------------------------14-------16b--16~---Lb-16br--L-16-14-|
------14-<>14-17~---L~-----17-14-----------------------------|
--16b--------------------------------------------------------|
-------------------------------------------------------------|
-------------------------------------------------------------|
-------------------------------------------------------------|


   W
   Q      S  S  S  S   S  S  S  S  S  S  S   S
---------14-17-14-19b--L-17-19----17----17b-19-|
--17b--------------------------19----19--------|
-----------------------------------------------|
-----------------------------------------------|
-----------------------------------------------|
-----------------------------------------------|


              W
                   |--3--|  |---3--|   |--3--|
   E    S  S  E    S  S  S  S   S  S   S  S  S  E.   S
--17b-------------14-----------------------------------|
-------19--x-17b-----17-14-----14-----17-14------------|
---------------------------16b----(0)-------17-14------|
-----------------------------------------------------x-|
-----------------------------------------------------x-|
-------------------------------------------------------|


   |--3--|  |--3--|  |------9------|  |-----9-----|  |-----9-----|  9  9  9
   S  S  S  S  S  S  T  T   T  T   T  T  T  T  T  T  T  T  T  T  T  T  T  T  E
--17-14----17-14----17--------17b-14----17-14----17-14----17-14----17-14----17~-|
--------14-------14--------14--------14-------14-------14-------14-------14-----|
-----------------------(0)------------------------------------------------------|
--------------------------------------------------------------------------------|
--------------------------------------------------------------------------------|
--------------------------------------------------------------------------------|



SOLO 'TIL END


  S  S S S  S S E   Q      Q        S S S S S S T  T S S S S S S S S S
-----5-5------5-----------/8\----|-------------------------------------|
-----5-5----5---8~--L~----/8\----|------7-5---5------8-8-8-8-8-----7---|
--7b-----7b----------------------|--9-8-7-5-7-5-7s-9-9-9-9-9-9-9-7-7---|
---------------------------------|----------7------------------------7-|
---------------------------------|-------------------------------------|
---------------------------------|-------------------------------------|


  E   S S S S S S T   T S S S S  S  S S
----------------------------------------|
--5~----------5-------------------------|
--5~----------5---7br-L-5-7---5b-5b-----|
------7---5-7---7-----------7-------7---|
--------7-----------------------------7-|
----------------------------------------|


                                   W
  S  S S   S  S   S S S   S  S S S Q
----------------------------------------|
----------------------------------------|
-------5-<>7b---<>5-7---<>5b------------|
--5b-7----------------7------7---5-7----|
-------------------------------7--------|
----------------------------------------|


    S   T T S   S   T T S   S   T T S   S   T T S    S   T  T  S    T  T
-------------------------------------------------------------------------|
-------------------------------------------------------------------------|
---/x\---------/x\---------/x\--------/12\---------/12\------------12p-0-|
-------10-9-7------11-9-7------12-9-7---x--12-9-7\--/x\-14-12-10b--------|
-----------------------------------------------------x-------------------|
-------------------------------------------------------------------------|


                                                                  |---3--|
  T    T T T T T T T T T T T S S   T    T    T    T     S     S   T    T T T   T
---------------------------------------------------------------------------------|
--7pbr-L-5-4-5-4-----------------------------------------------------------------|
-----------------7-5-7-7-5---5-7-<>7b-<>7b-<>7b-<>7pb-<>7pb-<>7pb-7pbr-L-5---<>7-|
---------------------------7-5-7-------------------------------------------7-----|
---------------------------------------------------------------------------------|
---------------------------------------------------------------------------------|


  S  S S  T   T     S S  S   S S S E   S   S S  S
-----------------------------------8--10b--L-8-10-|
--8-10-8-10b--Lpbr--L-8b-Lpb-8-8------------------|
---------------------------------9----------------|
--------------------------------------------------|
--------------------------------------------------|
--------------------------------------------------|


                                                    W
                             |---3---|    |---3---|     |--3--|
  S  S   S   S    S   S S  S S    S  S    S  S    S E.  T  T  T
--8-----------------------------------------------------3h-4h-7-|
----10---8b-10br--L\----8-10-8pbr-Lb-Lpbr-Lb-Lpbr-L-L-----------|
---------------------/9-----------------------------------------|
-------(10)-----------------------------------------------------|
----------------------------------------------------------------|
----------------------------------------------------------------|


   T                 T                 T                 T                 T
   |--12-|  |--12-|  |--12-|  |--12-|  |--12-|  |--12-|  |--12-|  |--12-|  |--12
   T  T  T  T  T  T  T  T  T  T  T  T  T  T  T  T  T  T  T  T  T  T  T  T  T  T
--12p-8p-5p-3h-5h-8-12p-8p-5p-3h-5h-8-12p-8p-5p-3h-5h-8-12p-8p-5p-3h-5h-8-12p-8--|p
---------------------------------------------------------------------------------|
---------------------------------------------------------------------------------|
---------------------------------------------------------------------------------|
---------------------------------------------------------------------------------|
---------------------------------------------------------------------------------|


                                                ^
   |--6--|  |--6--|  |--6--|  |--6--|  |--6--|  |--6--|  |--6--|  |--6--|
   S  S  S  S  S  S  S  S  S  S  S  S  S  S  S  S  S  S  S  S  S  S  S  S
-----17-------17----------------------------------------------------------|
--17----17-20----20-17----17----------------17-20-19-17----17-------17-20-|
-----------------------17----17----------17-----x-------19----17-19-------|
--------------------------------19-17-19----------------------------------|
--------------------------------------------------------------------------|
--------------------------------------------------------------------------|


   T     T   T     T   T     T   T     T   S     S   S     S   T     T   T     T
--15pbr--Lb--Lpbr--Lb--Lpbr--Lb--Lpbr--Lb--Lpbr--Lb--Lpbr--Lb--Lpbr--Lb--Lpbr----|L
--15pbr--Lb--Lpbr--Lb--Lpbr--Lb--Lpbr--Lb--Lpbr--Lb--Lpbr--Lb--Lpbr--Lb--Lpbr----|L
------------------------------------------------(0)-------(0)--------------------|
---------------------------------------------------------------------------------|
---------------------------------------------------------------------------------|
---------------------------------------------------------------------------------|


              NH      NH   \1/  \1/ \1/        W
   E    S     S       E    E    T   T  S   E   E   E
---Lb---Lb----------------------------17b--L--17---L\--|
-------------------------------------------------------|
-----------<>12pbr--<>L--<>5--<>L-<>L------------------|
-------------------------------------------------------|
-------------------------------------------------------|
-------------------------------------------------------|


   T  T  T  T  T  T  T  T  S  T  T  T T  T  T  T  T  T  T   X   X   T  X  X  T
--------------------------------------0------------------------------------------|
--15-13-12-------13-12----15-13-12------13-12------------------------------------|
-----------12-14-------12----------15---------14-12-14-12p-11h-12p-11----------1-|
----------------------------------------------------------------------12-11-12---|
---------------------------------------------------------------------------------|
---------------------------------------------------------------------------------|


   |--12-|  |--12-|    |--12-|  |--|
   T  T  T  T  T  T    T  T  T  T  S  T  T  T  T  T    T  T    T  T    T  T   T
--------------------------------------------------------------------------------|
----------------------------12-------13-12-13-----------------------------------|
--12-14-12-11----11-<>12-14----14-12----------14-12br--L--Lbr--L--Lbr--L--Lb-12-|
--------------14----------------------------------------------------------------|
--------------------------------------------------------------------------------|
--------------------------------------------------------------------------------|


   |----6----|     |----6----|
   T     T   T     T   T     T  S  S  T T T T  S   S S S S S S  S    S  S
---Lpbr--Lb--Lpbr--Lb--Lpbr--L--Lp-8-10-8-5-8b-Lpb-L-5-----5-8b-Lpbr-Lb-L-|
-------------------------------------------------------5-8----------------|
--------------------------------------------------------------------------|
--------------------------------------------------------------------------|
--------------------------------------------------------------------------|
--------------------------------------------------------------------------|


                ^
                   |--6--|  |---6---|    6  6  6  |--|  |--6--|  |---6--|  6   6
   S    S    S  S  S  S  S  S  S    S    T  T  S. T  S  S  S  S  S   S  S  S   S
--12br--Lbr--L-12-11-10----10----------------------------------------------------|
----------------x-------13----13br--Lbr--L-10-13-10-13-10--------------------(20-|
----------------------------------------------------------12-14s-7S-12-14-17--19-|
---------------------------------------------------------------------------------|
---------------------------------------------------------------------------------|
---------------------------------------------------------------------------------|


   |----3---|       |----6----|    |--6--|    |-----6----|  |--6--|
   S   S    S  E    S    S    S    E     S    S    S     S  S  S  S   S  S  S
----------------------------------20-----L--------------------------------------|
---L--20---20-----------20---20--------------------------------------------20br-|
---Lb--Lpb--L-19b---Lpb--Lpb--Lpb--Lpb---Lpb-19pb--Lpbr--L-17----17b-19-17------|
--------------------------------------------------------------19----------------|
--------------------------------------------------------------------------------|
--------------------------------------------------------------------------------|


   S   S  S  S    S  S   S  S  S  S    S    S  Q
------------20br--L-22b-20-22-20--------------------||
--20b-20-17----------------------22br--Lbr--L-20----||
----------------------------------------------------||
----------------------------------------------------||
----------------------------------------------------||
----------------------------------------------------||


Duration Legend
---------------
W - whole
H - half
Q - quarter
E - 8th
S - 16th
T - 32nd
X - 64th
. - note dotted
|-n-|  - n-tuplets


Tablature Legend
----------------
L - tied note
x - dead note
g - grace note
(n) - ghost note
> - accentuded note
NH - natural harmonic
AH - artificial harmonic
TH - tapped harmonic
SH - semi harmonic
PH - pitch harmonic
h - hammer on
p - pull off
b - bend
br - bendRelease
pb - preBend
pbr - preBendRelease
brb - bendReleaseBend
\n/ - tremolo bar dip
\n - tremolo bar dive
-/n - tremolo bar Release up
/n\ - tremolo bar inverted dip
/n - tremolo bar return
-\n - tremolo bar Release down
S - shift slide
s - legato slide
/ -  slide into from below or out of upwards
\ -  slide into from above or out of downwards
~ - vibrato
W - wide vibrato
tr - trill
TP - tremolo picking
T - tapping
S - slap
P - pop
< - fade in
^ - brush up
v - brush down

            
            
Suggest correction
Creating personal tab
Creating personal tab
You can edit any tab online and save it as your Personal.

You can edit, replace or remove any tab part or add personal notes – all changes will be seen only by you.

Personal tabs can be accessed anytime from any device, even offline.
Learn more »
comments
print report bad tab
guest
You may want to rate the tab now too:
select rating
Wanna post a correction for this tab? Suggest correction