Oops, an error
Loading. Please wait.

Bach Partita In Dm tab

version 2
version 2

Whole song

Interactive

340 views 3 this week
no commentswrite comment
1 2 3 4 5
2 more votes to show rating
add to favorites
×
Save as Personal and add changes to this tab that will be seen only by you. Learn more ›
×
You can save this tab as Personal to edit and correct it or add notes. All changes will be seen only by you. Learn more »
launch autoscroll
font size
0
reset
how to read this tab
guitar tuner
edit
Autoscroll
slow
fast
+/-
esc
set tempo
stop
Author
Difficulty
Play Section 1 twice, then play the second section of this piece.  Take your time with it,
there's a lot to take in here, but so worth it when you get it down.  Enjoy!
https://www.youtube.com/watch?v=rCwRHgCyIjA



[SECTION 1] - REPEAT TWICE~~~~

e|-----------------------13----15p13--------------------------------------15----17p15-------|
B|---------------15brh17----17-------17-15-14br-------------------17brh18----18-------18-17-|
G|-14---------14--------------------------------14------------------------------------------|
D|----12brh15--------------------------------------14---------19----------------------------|
A|----------------------------------------------------16brh19-------------------------------|
E|------------------------------------------------------------------------------------------|

e|---------------|-------------18-17-15----------------------------17-15-13----------|
B|---------------|-18-17-15-18----------18-17-15-13-15-17-15-13-17----------17-15-13-|
G|-19br-14-------|-------------------------------------------------------------------|
D|---------15----|-------------------------------------------------------------------|
A|------------17-|-------------------------------------------------------------------|
E|---------------|-------------------------------------------------------------------|

e|-------------------15-13-12----------------------------12-10-9-------------|
B|-11-13-15-13-11-15----------15-14-12-10-12-14-12-10-14---------12-10-8-----|
G|---------------------------------------------------------------------------|
D|---------------------------------------------------------------------------|
A|---------------------------------------------------------------------------|
E|---------------------------------------------------------------------------|

e|-----------------10-9~----|------------------10-12-13-15p12----------------|
B|-6-10-8-6-----------------|---------10-11-13-------------------------------|
G|----------9-7----------7~-|-9-10-12-------------------------17p12----------|
D|--------------7~----------|---------------------------------------14-------|
A|--------------------------|------------------------------------------------|
E|--------------------------|------------------------------------------------|

e|-------------------------------------------------------17/18h22-18-22-------|
B|----------------------------------------------17-18-20----------------17h20-|
G|-12-17p12----------------------------15-17-19-------------------------------|
D|----------14----14-17-19-17-15-17-19----------------------------------------|
A|-------------15-------------------------------------------------------------|
E|----------------------------------------------------------------------------|

e|-17----17-20-------15----15-18-------13----13-17-15-13----------------------------|
B|----20-------15h18----18-------13h17----17-------------17-15-17-18-17-15----------|
G|-------------------------------------------------------------------------17-15-17-|
D|----------------------------------------------------------------------------------|
A|----------------------------------------------------------------------------------|
E|----------------------------------------------------------------------------------|

e|-------------------13-------------------------------------------------------------|
B|-------------------------------------------------------11-------------------------|
G|-19-17-15-14-15-17----17p14----------17-------------------------------------------|
D|----------------------------15-17-19----19p15-12-13-15----15p12----------15-------|
A|----------------------------------------------------------------13-15-17----17p13-|
E|----------------------------------------------------------------------------------|

e|-------------------15-18p15----------------------15h18----------18----18----------|
B|----------------------------------------------17----------------------------------|
G|-------------15h17----------19p15----------17----------17p15-17----17-------------|
D|----------17----------------------17-14h17----------------------------------------|
A|----13h17-------------------------------------------------------------------------|
E|-15-------------------------------------------------------------------------------|

e|-------------13-17----------17----17-------------15-18----------18----18-------------|
B|----------17----------------------------------17----------------------------------17-|
G|----14h17----------17p15-17----17----------17----------17p15-17----17-------14h17----|
D|-15----------------------------------14h17-------------------------------15----------|
A|-------------------------------------------------------------------------------------|
E|-------------------------------------------------------------------------------------|

e|-13-17----------17----17-------------18-22----------22----22----------15---|
B|-------------------------------18h22-------------------------------17------|
G|-------17p15-17----17----15h19-------------21p19-21----21----14h17---------|
D|---------------------------------------------------------------------------|
A|---------------------------------------------------------------------------|
E|---------------------------------------------------------------------------|

e|-17-20----------20----20----------13-15-18----------18----18---------------|
B|-------------------------------15-------------------------------------17---|
G|-------19p17-19----19----12h15-------------17p15-17----17-------14h17------|
D|-------------------------------------------------------------15------------|
A|---------------------------------------------------------------------------|
E|---------------------------------------------------------------------------|

e|-13-17----------17----------------------------------------------------------|
B|-------------------18p15----------------------------------------------------|
G|-------17p15-17----------15----15-17-19p15-12----12-14-15p12-9----9-10-12p9-|
D|----------------------------17----------------15---------------12-----------|
A|----------------------------------------------------------------------------|
E|----------------------------------------------------------------------------|

e|---------8-12~-|-----------------------------------------------------------|
B|---------------|----------------------------------------------15----15-----|
G|----9h12-------|-15-14-12----------------------------------------18--------|
D|-10------------|----------15-14-12----------17-14/15----15h19----------19--|
A|---------------|-------------------16-14-12----------17--------------------|
E|---------------|-----------------------------------------------------------|

e|-------19-17-19-13-------------------------------------------17----17-19-20-16-17-20-|
B|-15-18-------------17-15-13----------------15-------------------21-------------------|
G|----------------------------16-14-13----------16/17----17h21-------------------------|
D|-------------------------------------16-14----------19-------------------------------|
A|-------------------------------------------------------------------------------------|
E|-------------------------------------------------------------------------------------|

e|-13-15-17-12-13-17-10-12-13-9-10-13----|----------------------19----------------15----|
B|------------------------------------9~-|----------15-17-18-15----15-13-15-17-13----13-|
G|---------------------------------------|-14-16-17-------------------------------------|
D|---------------------------------------|----------------------------------------------|
A|---------------------------------------|----------------------------------------------|
E|---------------------------------------|----------------------------------------------|

e|-------------16----------------17----------------19-------------------------------|
B|-12-13-15-12----12-13-15-17-13----13-15-17-18-15----15-13-15-17-12-13----12-13-15-|
G|----------------------------------------------------------------------14----------|
D|----------------------------------------------------------------------------------|
A|----------------------------------------------------------------------------------|
E|----------------------------------------------------------------------------------|

e|-------------|-----------------------------------------10----10----10-13-17-16-17----------|
B|-10-12-------|--------------------------------------------14----------------------17\14p10-|
G|-------13/14-|----------12~----------------10----10h14----------14-------------------------|
D|-------------|----11h14-----14p11----11h14----12-------------------------------------------|
A|-------------|-12-----------------12-------------------------------------------------------|
E|-------------|-----------------------------------------------------------------------------|

                [SECTION 2]

e|-----------||----------------------------------------------------|-------------------|
B|-----------||-17---------17---------11---------------------------|-------------------|
G|-----------||----14brh18----12brh14------------------------------|-------15-------15-|
D|-14p11-----||--------------------------11-14-12-11------------14-|-17-19----19-17----|
A|-------12~-||--------------------------------------14-12brh16----|-------------------|
E|-----------||----------------------------------------------------|-------------------|

e|-----------------------------------------|----------------------------11-10----------|
B|-17-15-14--------------------------------|-15-13-11----13-11----------------13-11-10-|
G|----------16-14-12----------12-14--------|----------14-------14-12-11----------------|
D|-------------------15-14-15-------15-12~-|-------------------------------------------|
A|-----------------------------------------|-------------------------------------------|
E|-----------------------------------------|-------------------------------------------|

e|---------------------|-17-15-14----------------------------|-20-18-17-------------------17-|
B|-------10------------|----------17-15-13----15-13----------|----------20-19-17----17-19----|
G|-12-11----12-11-9----|-------------------15-------15-14-12-|-------------------19----------|
D|------------------12-|-------------------------------------|-------------------------------|
A|---------------------|-------------------------------------|-------------------------------|
E|---------------------|-------------------------------------|-------------------------------|

e|-------------------------------------17-20----------20----20-|-------------15-18-|
B|-20-18-16-------------------------19-------------------------|----------19-------|
G|----------19-17-15-------------19----------19-17-19----19----|-------19----------|
D|-------------------19-17-16H19-------------------------------|-17-20-------------|
A|-------------------------------------------------------------|-------------------|
E|-------------------------------------------------------------|-------------------|

e|----------18----18-|-------------17-20----------20----20-|-------------15-18----------18----18-|
B|-------------------|----------19-------------------------|----------19-------------------------|
G|-19-17-19----19----|-------19----------19-17-19----19----|-------19----------19-17-19----19----|
D|-------------------|-16h19-------------------------------|-17-20-------------------------------|
A|-------------------|-------------------------------------|-------------------------------------|
E|-------------------|-------------------------------------|-------------------------------------|

e|-------------------------------------|-------------------------------------|-------------------|
B|-------------------------------------|-------------------------------------|-------------------|
G|----------15-17-20----------20----20-|----------14-15-19----------19----19-|----------12-14-17-|
D|-------17----------------------------|-------15----------------------------|-------13----------|
A|-15h18-------------20-18-20----20----|-13h17-------------18-17-18----18----|-12h15-------------|
E|-------------------------------------|-------------------------------------|-------------------|

e|-------------------|-------------------------------|----15----------13-15----------------11----|
B|-------------------|-------------------------------|-15----16-15-16-------16-13-11-13-15----13-|
13G|----------17----17-|----------11-12-15----11-12-15-|-----------------------------------------|
D|-------------------|-------12----------12----------|-------------------------------------------|
A|-17-15-17----17----|-10h13-------------------------|-------------------------------------------|
E|-------------------|-------------------------------|-------------------------------------------|

e|------------8----------10-14-|-17-20-18-17-20-18-17----------------17-------|
B|-10-8-10-11---10----10-------|----------------------20----20-19-20----19-20-|
G|-----------------11----------|-------------------------19-------------------|
D|-----------------------------|----------------------------------------------|
A|-----------------------------|----------------------------------------------|
E|-----------------------------|----------------------------------------------|

e|-------------------------------------13-15----------|-------------------------------------|
B|-16-15-13-------------------13-15-17-------17----17-|-------------------------------------|
G|----------15-14-15-12-14-15-------------------15----|----------15\14----14-15-17p14----14-|
D|----------------------------------------------------|-------17-------17-------------15----|
A|----------------------------------------------------|-15h19-------------------------------|
E|----------------------------------------------------|-------------------------------------|

e|-------------------------------------|-------------------------------10----10----10-13-17-|
B|-------------------14-15-17-14----14-|----------------------------------14----------------|
G|----------14-------------------------|----------12\10----10----10h14----------14----------|
D|-------15----15----------------17----|-------14-------14----12----------------------------|
A|-11h17----------17-------------------|-12h16----------------------------------------------|
E|-------------------------------------|----------------------------------------------------|

e|-------17-15-13----------------13-15-|-------15-13-12----------------12-13--|
B|----------------17-15-13-15-17-------|----------------15-13-11-13-15--------|
G|-17\15-------------------------------|-15\14--------------------------------|
D|-------------------------------------|--------------------------------------|
A|-------------------------------------|--------------------------------------|
E|-------------------------------------|--------------------------------------|

e|-------13-12-10----------------10-12-|----------10----------------------------|
B|----------------14-12-10-12-14-------|----------------------------------------|
G|-14\12-------------------------------|-12-10h14----14-10h14----10-14p10----10-|
D|-------------------------------------|----------------------12----------12----|
A|-------------------------------------|----------------------------------------|
E|-------------------------------------|----------------------------------------|

e|-------------------------------------------------------|-18-17-15-------------------15-17----|
B|-------15-18-17-14-------15-18-17-14-------15-18-17-14-|----------18-17-15-13-17-18-------17-|
G|-------------------------------------------------------|-------------------------------------|
D|-------------------------------------------------------|-------------------------------------|
A|-13h17-------------12h17-------------10h17-------------|-------------------------------------|
E|-------------------------------------------------------|-------------------------------------|

e|--------------------------------------------------|
B|-15\14-------17----------------15--------------13-|
G|-------16-14----12-10-12-14-10----10-9-10-12-9----|
D|--------------------------------------------------|
A|--------------------------------------------------|
E|--------------------------------------------------|

e|--------------------------------------------------11-----------------|
B|------------11-----------10-----------8---8-10-11----8---------------|
G|-9-7-9-10-7----7-5-7-9-5----5-3-5-7-3---7-----------------------12---|
D|-------------------------------------------------------7-9-11-7----7-|
A|---------------------------------------------------------------------|
E|---------------------------------------------------------------------|

e|-----------9------------10----------------19----|-------------------13-------------|
B|-8-10-11-8---8-6-8-10-6----10-15-17-18-15----15-|----------14-15-17----17-15-14-15-|
G|------------------------------------------------|-13-14-16-------------------------|
D|------------------------------------------------|----------------------------------|
A|------------------------------------------------|----------------------------------|
E|------------------------------------------------|----------------------------------|

e|----------------13-15-17-19-12-13-15-------|-------------12-13----12-17-22-21-22----|
B|-------14-15-17----------------------14-15-|----------15-------15----------------22-|
G|-13-14-------------------------------------|-------14-------------------------------|
D|-------------------------------------------|-12-15----------------------------------|
A|-------------------------------------------|----------------------------------------|
E|-------------------------------------------|----------------------------------------|

e|-----------------|
B|-18--------------|
G|----19-14--------|
D|----------15-----|
A|-------------17~-|
E|-----------------|



************************************

| h   Hammer-on
| p   Pull-off
| br  Bend release
| /   Slide up
| \   Slide down
| ~   Vibrato

************************************

            
            
Suggest correction
Creating personal tab
Creating personal tab
You can edit any tab online and save it as your Personal.

You can edit, replace or remove any tab part or add personal notes – all changes will be seen only by you.

Personal tabs can be accessed anytime from any device, even offline.
Learn more »
Give kudos to tab author, rate the tab!
1 2 3 4 5
comments
print report bad tab
guest
You may want to rate the tab now too:
select rating
Wanna post a correction for this tab? Suggest correction