Oops, an error
Loading. Please wait.

Bach Prelude No15 Extract Tab

46 views 6 this week
no commentswrite comment
1 2 3 4 5
1 last vote to show rating
add to favorites
launch autoscroll
font size
0
reset
how to read this tab
guitar tuner
Autoscroll
slow
fast
+/-
esc
set tempo
stop
Help us to improve Ultimate-Guitar.com Take our survey!
×
Author
Difficulty
Tuning
intermediate
D A D G B E
About this tab version
I found a link on youtube to this tab but the page wouldn't open so i spent a few hours tabbing it out myself. :P. Was this info helpful? Yes No
 

e|--------------------------|------------------------|------------------------|
B|--------3-----------------|------------------------|------------1-----------|
G|--------------------------|------------------------|------------------------|
D|----4h7---7p4-7p4---4-----|----4h5-----------------|--------2h5---5p2-5p2p0-|
A|--5---------------5---5-3-|2h5-----5p2-5p2---2-----|----2h3-----------------|
D|--------------------------|----------------5---5-3-|2h5---------------------|

e|------------------------|------------------------|--------------------------|
B|------------------------|------------3-----------|--------------------------|
G|------------------------|------------------------|--------------------------|
D|----5h7-----------------|--------4h7---7p4-7p4---|4-------------------------|
A|4h7-----7p4-7p4---4-----|----4h5---------------5-|--5p0-5p0------5----------|
D|----------------7---7-5-|4h7---------------------|----------4-0-----5-------|

It still sounds bad ass without, but to get the full effect Gilbert lightly
palm mutes as he plays and varies the amount he mutes to accent certain notes.


************************************

| h   Hammer-on
| p   Pull-off

************************************
Suggest correction
Give kudos to tab author, rate the tab!
1 2 3 4 5
comments
print report bad tab
guest
You may want to rate the tab now too:
select rating
Wanna post a correction for this tab? Suggest correction