Oops, an error
Loading. Please wait.

Bach Prelude No15 Extract Tab

version 1
version 1

Whole song

  • I found a link on youtube to this tab but the page... Show more
1,001 views 18 this week
no commentswrite comment
1 2 3 4 5
x 3
add to favorites
launch autoscroll
font size
0
reset
how to read this tab
guitar tuner
Autoscroll
slow
fast
+/-
esc
set tempo
stop
Author
Tuning
D A D G B E
E|-----------------------------------------|
B|-----------3-----------------------------|
G|-----------------------------------------|
D|-----4--7-----7--4--7--4-----4-----------|
A|--5-----------------------5-----5--3-----|
D|-----------------------------------------|

E|-----------------------------------------|
B|-----------------------------------------|
G|-----------------------------------------|
D|--------4--5-----------------------------|
A|--2--5--------5--2--5--2-----2-----------|
D|--------------------------5-----5--3-----|

E|-----------------------------------------|
B|-----------------------------------------|
G|--------------------5--------------------|
D|--------------2--5-----5--2--5--2--0-----|
A|--------2--3-----------------------------|
D|--2--5-----------------------------------|

E|--------------------------------------|
B|--------------------------------------|
G|--------------------------------------|
D|--------5--7--------------------------|
A|--4--7--------7--4--7--4-----4--------|
D|--------------------------7-----7--5--|

E|--------------------------------------------------|--------------------------------------|
B|--------------------------------------------------|--------------------------------------|
G|---------------------------7----------------------|--------------------------------------|
D|-------------------4---7-------7---4---7---4------|--4-----------------------------------|
A|-----------4---5-------------------------------5--|------5---0---5---0-----------5-------|
D|---4---7------------------------------------------|----------------------4---0-------5---|
Suggest correction
Give kudos to tab author, rate the tab!
1 2 3 4 5
comments
print report bad tab
guest
You may want to rate the tab now too:
select rating
Wanna post a correction for this tab? Suggest correction