Oops, an error
Loading. Please wait.

Curse Of Castle Dragon Bass Tab

version 1
version 1

Whole song

Interactive

2,164 views 1 this week
no commentswrite comment
1 2 3 4 5
please rate
add to favorites
launch autoscroll
font size
0
reset
guitar tuner
Tab Pro tools
  • play this tab
  • loop segment
  • change instrument
  • show fretboard
  • metronome
×
Best way to learn
"Curse Of Castle Dragon"
Autoscroll
slow
fast
+/-
esc
set tempo
stop
Contributor
Difficulty
intermediate
-------------------------------------------------------------------------------
		    Curse of Castle Dragon - Paul Gilbert
-------------------------------------------------------------------------------

Tabbed By : ak Gitaroo Man
e-mail: alvinoncillo@hotmail.com

Tuning:EADG

Too Lazy to label parts but they're all there.  I've left out some of the unison runs that go with the guitar.

G|---------------------------------------------------------------------------|
D|--------------------33333333333-20----------------------33333333333-20-----|
A|0-00000000000-023-----------------3-0-00000000000-023-----------------3----|
E|------------------1-----------------------------------1--------------------|

G|---------------------------------------------------------------------------|
D|---------------------2-----------------------------------------------------|
A|--------------023----------------------------------------------------------|
E|3-33333333333-----0-0--000-1-11-3-333--------------------------------------|

G|---------------------------------------------------------------------------|
D|---------------------------------------------------------------------------|
A|7-------7-------787---7-------7-------787---7-------7-------7--------------|
E|-1087810-1087810---10--1087810-1087810---10--1087810-1087810-10875---------|

G|17-14-12----------------------17-14-12-------------------------------------|
D|--------1412------10-7-5--------------1412------10-7-5---------------------|
A|------------15-12-------75----------------15-12-------75-------------------|
E|--------------------------8-5---------------------------8------------------|

G|---------------------------------------------------------------------------|
D|---------------------------------------------------------------------------|
A|000000000000-3-5-3-000000000000-3-5-3-xxxxxxxxxxxx-------------------------|
E|---------------------------------------------------------------------------|

G|-------------------109-9h10p9p7--------------------------------------------|
D|----7910--7--9--10--------------1097---------------------------------------|
A|---7-----5--7--8--------------------1087-----------------------------------|
E|578-------------------------------------108-777777777777-000000000000------|

G|-------------------109-9h10p9p7--------------------------------------------|
D|----7910--7--9--10--------------1097---------------------------------------|
A|---7-----5--7--8--------------------1087-----------------------777777------|
E|578-------------------------------------108-777777777777-000000------------|

G|---------------------------------------------------------------------------|
D|---------------------------------------------------------------------------|
A|5-55555-5555---------------------------------------------------------------|
E|------------5-55555-5555-1-11111-1111-5-55555-5555-3-3-333333333333333333--|

G|--------------97-----------------------------------------------------------|
D|2-0-------------1097-------------------------------------------------------|
A|----3-2-0-0-0-------1087---------------------------------------------------|
E|------------------------10878-xxxxxxxxxxxx---------------------------------|

G|---------------------------------------------------------------------------|
D|---------------------------------------------------------------------------|
A|---------------------------------------------------------------------------|
E|0000000000000-(keeping going until solo)----------------------------------|

G|--(bass chord changes, ad lib)--------------------------------------------|
D|---------------------------------------------------------------------------|
A|--57---54-2-4-2------57---54-2-4-2-----------------------------------------|
E|2----2----------54-2----2----------454545-7--------------------------------|

G|97---10101010|99991212121210101010141414141212121216161616141414141717171719
D|--107--------|-------------------------------------------------------------|
A|-------------|-------------------------------------------------------------|
E|-play x------|-------------------------------------------------------------

| /  slide up
| \  slide down
| h  hammer-on
| p  pull-off
| ~  vibrato
| +  harmonic
| x  Mute note
===============================================================================
comments
We did not receive enough feedback on this tab! Please rate:
print report bad tab
1 2 3 4 5
I want to post or [tab]
guest
You may want to rate the tab now too:
select rating
Please do not post tabs as comments. Select "correction" instead!