Oops, an error
Loading. Please wait.

Down To Mexico intro tab

version 2
version 2

Intro

Whole song

Interactive

3,363 views 3 this week
2 commentsread comments
1 2 3 4 5
1 last vote to show rating
add to favorites
×
Save as Personal and add changes to this tab that will be seen only by you. Learn more ›
×
You can save this tab as Personal to edit and correct it or add notes. All changes will be seen only by you. Learn more »
launch autoscroll
font size
0
reset
how to read this tab
guitar tuner
backing track
0:00
0:00
edit
Autoscroll
slow
fast
+/-
esc
set tempo
stop
Author
Difficulty
E------------------------------------|
B------------------------------------|
G-7^-7^-7p5---7^-7^-7p5--------5-----|
D-----------5-----------5--5-7---7---|
A----------------------------------0-|
E------------------------------------|

E----------------------------------------------|
B--------------------------------------------8-|
G-7^-7^-7p5---7^-7^-7p5--------5-----5-----5-8-|
D-----------5-----------5------5-----5-----5---|
A--------------------------5/7---5/7---5/7-----|
E----------------------------------------------|

E------------------------------------|
B------------------------------------|
G-7^-7^-7p5---7^-7^-7p5--------5-----|
D-----------5-----------5--5-7---7---|
A----------------------------------0-|
E------------------------------------|

E-------------------------------------------------------|
B-------12-14-------12-14-------12-14-13-13-------------|
G-12-14-------12-14-------12-14-------------14-12----14-|
D-------------------------------------------------14----|
A-------------------------------------------------------|
E-------------------------------------------------------|

E---------------------------------------------------|
B----------------------------------1----------------|
G---------5-----5-x-x-7---------0--2--7^-7^-7p5-----|
D-5-7-x-x---7-5-5-x-x-7--7-5-7--0--0------------7-5-|
A-------------------------------3-------------------|
E---------------------------------------------------|

I did not put the solo up yet,but I will soon. What is here is everything except the solo.
Suggest correction
Creating personal tab
Creating personal tab
You can edit any tab online and save it as your Personal.

You can edit, replace or remove any tab part or add personal notes – all changes will be seen only by you.

Personal tabs can be accessed anytime from any device, even offline.
Learn more »
Give kudos to tab author, rate the tab!
1 2 3 4 5
comments
print report bad tab
2 comments total.
0 reply
SRV16 484 Jun 10, 2007 11:25 AM

seems pretty perfect to me, gd job.

0 reply
nnizzle 41 Jul 07, 2007 08:46 AM

Inaccurate

guest
You may want to rate the tab now too:
select rating
Wanna post a correction for this tab? Suggest correction