Oops, an error
Loading. Please wait.

Down To Mexico Tab

version 3
version 3

Intro

Whole song

Interactive

9,135 views 1 this week
1 commentread comment
1 2 3 4 5
please rate
add to favorites
launch autoscroll
font size
0
reset
how to read this tab
guitar tuner
Autoscroll
slow
fast
+/-
esc
set tempo
stop
Help us to improve Ultimate-Guitar.com Take our survey!
×
Difficulty
intermediate
Paul Giblert

Song: Down To Mexico

Trans:Dustin Sean Bradley
 Email:rage_2k2@hotmail.com (for any questions)
Im not sure wich album this is off of (yea i know,i'm a dumbass,lol) but i noticed the
i found for this song only sounded right when tuned a whole step down,so i figured id try
only know the intro and the way i play the verse. *do keep in mind this is merely for 
you an idea of how the goes,i'm not claiming it to be the complete song,or the
way to play it,with that in mind lets have some fun....

 Standard Tuning

intro
G
|--------------------------------------------|
|--------------------------------------------|
|-5^-5^-5^-r-3----5^-5^-5^-r-3-----------3---|
|--------------5---------------5--3--5-*---5-|
|--------------------------------------------|
|--------------------------------------------|

|------------------------------------------------------|
|--------------------------------------3------3----3-3-|
|-5^-5^-5^-r-3----5^-5^-5^-r-3---------3------3----3-3-|
|--------------5---------------5---3h5----3h5---3h5----|
|------------------------------------------------------|
|------------------------------------------------------|

|----------------------------------------------------------------------------|
|----------------------------------------------------------------------------|
|-5^-5^-5^-r-3----5^-5^-5^-r-3-----------3---------10h12-----10h12-----10h12-|
|--------------5---------------5--3--5-*---5-/10h12-----10h12-----10h12------|
|----------------------------------------------------------------------------|
|----------------------------------------------------------------------------|

------------------------------|
------------------------------|
------10h12/15-15-15p12\10-15-|
-10h12------------------------|
------------------------------|
------------------------------|
Thats all of the intro that part's played a few times in the song as for the verse,well
are the chords i use (in this manner)

G-F-C-G...Currently figuring out the rest be ready for the other part very soon....DSB
Suggest correction
Give kudos to tab author, rate the tab!
1 2 3 4 5
comments
print report bad tab
1 comment total.
0 reply
sean_8801 31 wrote on March 15 2013, 10:04 pm

Correction to my old ass post

------------------------------|
------------------------------|
------10h12/15-15-15p12\10-12-|
-10h12------------------------|
------------------------------|
------------------------------|

guest
You may want to rate the tab now too:
select rating
Wanna post a correction for this tab? Suggest correction