Oops, an error
Loading. Please wait.

Get Out Of My Yard Tab

version 1
version 1

Intro

Solo

Interactive

23,803 views 33 this week
17 commentsread comments
1 2 3 4 5
excellent!
x 13
add to favorites
launch autoscroll
font size
0
reset
how to read this tab
guitar tuner
Tab Pro tools
  • play this tab
  • loop segment
  • change instrument
  • show fretboard
  • metronome
Autoscroll
slow
fast
+/-
esc
set tempo
stop
Contributor
ARTIST:             PAUL GILBERT
ALBUM:           GET OUT OF MY YARD
SONG:            GET OUT OF MY YARD
TUNING: E-A-D-E-E-E
      This is the intro for GET OUT OF MY YARD. The first,second,and third string are 
tuned to E in octaves. Have someone put their finger on the last note of every group being 
human capo. OR you can try to tap it yourself. Good Luck. Hope you all enjoy!


-15-11-8-------------------------15-11-8---------16-11-8-----------------|
---------15-11-8---------15-11-8---------15-11-8---------16-11-8---------|
-----------------15-11-8-----------------------------------------16-11-8-|
-------------------------------------------------------------------------|
-------------------------------------------------------------------------|
-------------------------------------------------------------------------|

--------16-11-8---------15-11-6-------------------------15-11-6----------|
16-11-8---------16-11-8---------15-11-6---------15-11-6---------15-11-6--|
----------------------------------------15-11-6--------------------------|
-------------------------------------------------------------------------|
-------------------------------------------------------------------------|
-------------------------------------------------------------------------|

13-10-6-------------------------13-10-6---------11-8-4------------------|
--------13-10-6---------13-10-6---------13-10-6--------11-8-4-----------|
----------------13-10-6---------------------------------------11-8-4----|
------------------------------------------------------------------------|
------------------------------------------------------------------------|
------------------------------------------------------------------------|

-------11-8-4--------10-8-4----------------------10-8-4--------11-7-3---|
11-8-4--------11-8-4--------10-8-4--------10-8-4--------10-8-4----------|
-----------------------------------10-8-4-------------------------------|
------------------------------------------------------------------------|
------------------------------------------------------------------------|
------------------------------------------------------------------------|

---------------------11-7-3--------10-7-3----------------------10-7-3---|
11-7-3--------11-7-3--------11-7-3--------10-7-3--------10-7-3----------|
-------11-7-3------------------------------------10-7-3-----------------|
------------------------------------------------------------------------|
------------------------------------------------------------------------|
------------------------------------------------------------------------|

-------20-16-13----------------------------20-16-13----------21-16-13---|
10-7-3----------20-16-13----------20-16-13----------20-16-13------------|
-------------------------20-16-13---------------------------------------|
------------------------------------------------------------------------|
------------------------------------------------------------------------|
------------------------------------------------------------------------|

---------------------------21-16-13----------20-16-11-------------------|
21-16-13----------21-16-13----------21-16-13----------20-16-11----------|
---------21-16-13----------------------------------------------20-16-11-|
------------------------------------------------------------------------|
------------------------------------------------------------------------|
------------------------------------------------------------------------|

---------20-16-11----------18-15-11----------------------------18-15-11-|
20-16-11----------20-16-11----------18-15-11----------18-15-11----------|
---------------------------------------------18-15-11-------------------|
------------------------------------------------------------------------|
------------------------------------------------------------------------|
------------------------------------------------------------------------|

---------19-16-10----------16-13-10-----------------------------16-13-7-|
18-15-11----------19-16-10----------16-13-10--19-16-10------------------|
-------------------------------------------------------19-16-10---------|
------------------------------------------------------------------------|
------------------------------------------------------------------------|
------------------------------------------------------------------------|

--------13-10-7--------------------------16-13-9-------------------------|
16-13-7---------13-10-7--16-13-7-----------------16-13-9---------16-13-9-|
---------------------------------16-13-7-----------------16-13-9---------|
-------------------------------------------------------------------------|
-------------------------------------------------------------------------|
-------------------------------------------------------------------------|

16-13-9---------15-11-9-------------------------15-11-9---------16-13-9-|
--------16-13-9---------15-11-9---------15-11-9---------15-11-9---------|
--------------------------------15-11-9---------------------------------|
------------------------------------------------------------------------|
------------------------------------------------------------------------|
------------------------------------------------------------------------|

------------------------16-13-9---------15-11-9-------------------------|
16-13-9---------16-13-9---------16-13-9---------15-11-9---------15-11-9-|
--------16-13-9-----------------------------------------15-11-9---------|
------------------------------------------------------------------------|
------------------------------------------------------------------------|
------------------------------------------------------------------------|

15-11-9---------16-12-8-------------------------16-12-8---------15-12-8-|
--------15-11-9---------16-12-8---------16-12-8---------16-12-8---------|
--------------------------------16-12-8---------------------------------|
------------------------------------------------------------------------|
------------------------------------------------------------------------|
------------------------------------------------------------------------|

------------------------15-12-8---------16-12-8--------------------------|
15-12-8---------15-12-8---------15-12-8---------16-12-8----------16-12-8-|
--------15-12-8-----------------------------------------16-12-8----------|
-------------------------------------------------------------------------|
-------------------------------------------------------------------------|
-------------------------------------------------------------------------|

16-12-8-----------20-8-20-8-20-8-20-8-20-13-20-13-20-13-20-13-----------|
--------16-12-8---------------------------------------------------------|
------------------------------------------------------------------------|
------------------------------------------------------------------------|
------------------------------------------------------------------------|
---------------------------------------------------------------/-/-0----|
comments
print report bad tab
17 comments total. Showing first comments.
0 reply
Dead Horse wrote on January 28 2007, 02:03 pm

sweeeet lol :P :D

0 reply
midi pure wrote on April 13 2007, 05:32 pm

nice tab :D

0 reply
towk667 wrote on April 17 2007, 06:16 pm

instead of finding a human capo you could just tap a little bit... Although it is a little bit harder...

I want to post or [tab]
guest
You may want to rate the tab now too:
select rating
Please do not post tabs as comments. Select "correction" instead!