Oops, an error
Loading. Please wait.

Get Out Of My Yard Tab

version 2
version 2

Intro

Interactive

13,671 views 1 this week
3 commentsread comments
1 2 3 4 5
x 7
add to favorites
launch autoscroll
font size
0
reset
how to read this tab
guitar tuner
Autoscroll
slow
fast
+/-
esc
set tempo
stop
Help us to improve Ultimate-Guitar.com Take our survey!
×
Difficulty
advanced
-------------------------------------------------------------------------------
                             Paul Gilbert - Get Out Of My Yard
                              (Arpeggios Arranged for EADGBE)
-------------------------------------------------------------------------------
Tabbed by: Quietus Reprise
Email: t#u#r#n#b#u#l#l#8#9#@hotmail.com  (Remove the "#"s)

Tuning: Standard


This is my interpretation of Paul Gilbert - Get Out Of My Yard for a 6-string guitar in 
tuning. These arpeggios are very hard to play cleanly up to speed.
I pick everything, but you might find it easier to include slides and pull-offs where 
see fit...
Paul Gilbert plays this on a 3-string neck tuned to octaves of E. (Much easier, but 
a second person for capo and a second neck)


      |--3--|  |--3--|  |--3-|  |--3--|  |--3--|  |--3--|  |--3--|  |--3--|
      S  S  S  S  S  S  S  S S  S  S  S  S  S  S  S  S  S  S  S  S  S  S  S
E||--15-11------------------------------15-11-------------16-11-------------|
B||--------13---------------------------------13----------------13----------|
G||-----------12---------------12----------------12----------------13-------|
D||--------------13---------------13----------------13----------------13----|
A||-----------------15-10------------15----------------15----------------15-|
E||-----------------------11-8----------------------------------------------|


   |--3-|  |--3--|  |--3--|  |--3--|  |--3--|  |--3--|  |--3-|  |--3--|
   S  S S  S  S  S  S  S  S  S  S  S  S  S  S  S  S  S  S  S S  S  S  S
-------------------16-11-------------15-11------------------------------|
-------------------------13----------------11---------------------------|
----------13----------------13----------------12---------------12-------|
-------------13----------------13----------------13---------------13----|
--11------------15----------------15----------------13-10------------13-|
-----11-8-------------------------------------------------11-6----------|


   |--3--|  |--3--|  |--3--|  |--3--| |--3-|  |--3--|  |--3--|  |--3--|
   S  S  S  S  S  S  S  S  S  S  S  S S  S S  S  S  S  S  S  S  S  S  S
--15-11-------------13-10-----------------------------13-10-------------|
--------11----------------11--------------------------------11----------|
-----------12----------------10--------------10----------------10-------|
--------------13----------------12--------------12----------------12----|
-----------------13----------------13-8------------13----------------13-|
----------------------------------------10-6----------------------------|


   |-3-| |-3-| |-3-| |--3--|  |-3-| |--3--|  |-3-| |-3-|
   S S S S S S S S S S  S  S  S S S S  S  S  S S S S S S
--11-8-----------------------11-8-----------10-8---------|
-------9--------------------------9--------------9-------|
---------8-5---------8--------------8--------------7-5---|
-------------6---------10-------------10---------------6-|
---------------6-3--------11-------------11--------------|
-------------------4-------------------------------------|


  |-3-| |-3-|  |-3-| |-3-|  |-3-|  |-3-| |-3-| |--3-|
  S S S S S S  S S S S S S  S S S  S S S S S S S S  S
--------------10-8---------11-7-----------------------|
--------3----------9------------8S-4------------------|
----------5----------7-5-------------4---------8------|
------------6------------6-------------5---------9----|
--5-3------------------------------------6-2-------10-|
------4--------------------------------------3--------|


   |--3--|  |--3--|  |--3--|  |-3-| |--3-| |--3-|  |-3-| |--3-|
   S  S  S  S  S  S  S  S  S  S S S S  S S S S  S  S S S S S  S
--11----------------10----------------------------10-7----------|
-----12----------------12------------------------------8--------|
--------12----------------12S-7------------7-------------7------|
-----------13-------------------9-5----------9-------------9----|
--------------14--------------------5S-2-------10------------10-|
-----------------15----------------------3----------------------|


   |--3--|  |--3--|  |--3--|  |--3--|  |--3--|  |--3--|  |--3--|  |--3--|
   S  S  S  S  S  S  S  S  S  S  S  S  S  S  S  S  S  S  S  S  S  S  S  S
--20-16-------------------------------20-16-------------21-16-------------|
--------18----------------------------------18----------------18----------|
-----------17----------------17----------------17----------------18-------|
--------------18----------------18----------------18----------------18----|
-----------------20-15-------------20----------------20----------------20-|
-----------------------16-13----------------------------------------------|


   |--3--|  |--3--|  |--3--|  |--3--|  |--3--|  |--3--|  |--3--|  |--3--|
   S  S  S  S  S  S  S  S  S  S  S  S  S  S  S  S  S  S  S  S  S  S  S  S
--------------------21-16-------------20-16-------------------------------|
--------------------------18----------------16----------------------------|
-----------18----------------18----------------17----------------17-------|
--------------18----------------18----------------18-13-------------18----|
--16-------------20----------------20-------------------15-------------18-|
-----16-13-------------------------------------------------16-11----------|


   |--3--|  |--3--|  |--3--|  |--3--|  |--3--|  |--3--|  |--3--|  |--3--|
   S  S  S  S  S  S  S  S  S  S  S  S  S  S  S  S  S  S  S  S  S  S  S  S
--20-16-------------18-15-------------------------------18-15-------------|
--------16----------------16----------------------------------16----------|
-----------17----------------15----------------15----------------15-------|
--------------18----------------17----------------17----------------17----|
-----------------18----------------18-13-------------18----------------18-|
-----------------------------------------15-11----------------------------|


   |--3--|  |--3--|  |--3--|  |--3--|  |--3--|  |--3--|  |--3-|  |--3--|
   S  S  S  S  S  S  S  S  S  S  S  S  S  S  S  S  S  S  S  S S  S  S  S
--19-16-------------16-13-------------------------------13-10------------|
--------15----------------15----------12----------------------9----------|
-----------16-13-------------13----------13---------------------10-------|
-----------------12-------------15----------12---------------------12----|
-----------------------------------17----------14-11------------------11-|
-----------------------------------------------------10------------------|


   |-3-| |--3-| |-3-| |-3-|  |--3--|  |--3--|  |--3-|  |--3--|
   S S S S S  S S S S S S S  S  S  S  S  S  S  S  S S  S  S  S
--10-7----------------------16-13------------------------------|
-------9--------6-----------------14---------------------------|
---------7--------7------------------13---------------13-------|
-----------9--------6-3-----------------15-11------------15----|
-------------11---------5---------------------11------------16-|
--------------------------4----------------------13-9----------|


   |--3--|  |--3--|  |--3--|  |--3--|  |--3-|  |--3--|  |--3--|  |--3--|
   S  S  S  S  S  S  S  S  S  S  S  S  S  S S  S  S  S  S  S  S  S  S  S
--16-13-------------15---------------------------------15-11-------------|
--------14-------------16-14---------------------------------14----------|
-----------13----------------12---------------12----------------12-------|
--------------15----------------13-11------------13-11-------------13-11-|
-----------------16-------------------10---------------------------------|
-----------------------------------------11-9----------------------------|


   |--3--|  |--3--|  |--3-| |--3--|  |--3--|  |--3--|  |--3--|  |--3--|
   S  S  S  S  S  S  S  S S S  S  S  S  S  S  S  S  S  S  S  S  S  S  S
--16-13-----------------------------16-13-------------15----------------|
--------14------------------9-------------14-------------16-14----------|
-----------13-----------------10-------------13----------------12-------|
--------------15-----------------11-------------15----------------13-11-|
-----------------16-11-----------------------------16-------------------|
-----------------------13-9---------------------------------------------|


   |--3-|  |--3--|  |--3--|  |--3--|  |--3--|  |--3--|  |--3-|  |--3--|
   S  S S  S  S  S  S  S  S  S  S  S  S  S  S  S  S  S  S  S S  S  S  S
-------------------15-11-------------16-12------------------------------|
-------------------------14----------------13---------------------------|
----------12----------------12----------------13---------------13-------|
-------------13----------------13----------------14-10------------14----|
--10------------16----------------16-------------------11------------15-|
-----11-9-------------------------------------------------12-8----------|


   |--3--|  |--3--|  |--3--|  |--3-|  |--3-|  |--3--|  |--3--|  |--3--|
   S  S  S  S  S  S  S  S  S  S S  S  S  S S  S  S  S  S  S  S  S  S  S
--16-12-------------15-12-----------------------------15-12-------------|
--------13----------------13--------------------------------13----------|
-----------13----------------12-9------------12----------------12-------|
--------------14------------------10------------14----------------14----|
-----------------15------------------10------------15----------------15-|
----------------------------------------12-8----------------------------|


   |--3--|  |--3--|  |--3-|  |--3--|  |--3--|  |--3--|  |--3--|  |--3--|
   S  S  S  S  S  S  S  S S  S  S  S  S  S  S  S  S  S  S  S  S  S  S  S
--16-12------------------------------16-12-------------15-12-------------|
--------13---------------------------------13----------------13----------|
-----------13---------------13----------------13----------------12-------|
--------------14---------------14----------------14----------------14----|
-----------------15-11------------15----------------15----------------15-|
-----------------------12-8----------------------------------------------|

   |--3-|  |--3--|  |--3--|  |--3--|
   S  S S  S  S  S  S  S  S  S  S  S H
-------------------15-12----------------------------------------------|
-------------------------13-------------------------------------------|
----------12----------------12----------------------------------------|
-------------14----------------14-10----------------------------------|
--10------------15----------------------------------------------------|
-----12-8----------------------------8~-------------------------------|


-----------||
-----------||
-----------||
-----------||
-----------||
-----------||


LEGEND:

S - 16th
|-3-|  - Tripplets
S - shift slide
s - legato slide
~ - vibrato
Suggest correction
comments
print report bad tab
3 comments total.
0 reply
Adida 10 Aug 12, 2009 11:35 PM

wow, when I played this it was sure correct in my opinion , I just started playing the first 5secs. and was wow'd I know this is stupid but..The only person I know who knew this 6 string get out of my yard for paul gilbert, would be anton oparin , Im not saying your him or anything.. but for you to be able to tab this, wow.. and huge kudos; I have been playing guitar for 7 months so I guess I dont know too much myself but from playing this and me practicing it slowly , the notes sound just like it so far..
awesome job!! =) (wow'd)

~Adida

0 reply
ACDCfrontman 35 Sep 05, 2009 01:09 AM

If you tabbed this out on your own you are a ****ing beast. Gilbert needs to play it like this, his version is bullshit with the special 3 e string guitar and human capo

0 reply
muse_M1D1 10 Dec 16, 2010 04:01 PM

so i looked at this tab knowing i cannot play this
so i put it into guitarpro and this sounds almost EXACT
you are one hell of a tabber :D

guest
You may want to rate the tab now too:
select rating
Wanna post a correction for this tab? Suggest correction