Oops, an error
Loading. Please wait.

Get Out Of My Yard Tab

version 3
version 3

Intro

Interactive

4,216 views 1 this week
no commentswrite comment
1 2 3 4 5
excellent!
x 3
add to favorites
launch autoscroll
font size
0
reset
how to read this tab
guitar tuner
Autoscroll
slow
fast
+/-
esc
set tempo
stop
Help us to improve Ultimate-Guitar.com Take our survey!
×
Contributor
Track 1
      |--3--|  |--3--|  |--3--|  |--3--|  |--3--|  |--3--|  
      S  S  S  S  S  S  S  S  S  S  S  S  S  S  S  S  S  S  
E||--15-11----------------------------11-15-11----------11-|
B||--------13----------------------13----------13----13----|
G||-----------12----------------12----------------12-------|
D||--------------13----------13----------------------------|
A||-----------------15-10-15-------------------------------|
E||--------------------------------------------------------|


   |--3--|  |--3--|  |--3--|  |--3--|  |--3--|  |--3--|  
   S  S  S  S  S  S  S  S  S  S  S  S  S  S  S  S  S  S  
--16-11----------------------------11-16-11----------11-|
--------13----------------------13----------13----13----|
-----------13----------------13----------------13-------|
--------------13----------13----------------------------|
-----------------15-11-15-------------------------------|
--------------------------------------------------------|


   |--3--|  |--3--|  |--3--|  |--3--|  |--3--|  |--3--|  
   S  S  S  S  S  S  S  S  S  S  S  S  S  S  S  S  S  S  
--15-11----------------------------11-15-11----------11-|
--------11----------------------11----------11----11----|
-----------12----------------12----------------12-------|
--------------13----------13----------------------------|
-----------------13-10-13-------------------------------|
--------------------------------------------------------|


   |--3--|  |--3--| |--3--|  |--3--|  |--3--|  |--3--|  
   S  S  S  S  S  S S  S  S  S  S  S  S  S  S  S  S  S  
--13-10---------------------------10-13-10----------10-|
--------11---------------------11----------11----11----|
-----------10---------------10----------------10-------|
--------------12---------12----------------------------|
-----------------13-8-13-------------------------------|
-------------------------------------------------------|


   |-3-| |--3--| |--3--| |-3-|  |-3-| |-3-|  
   S S S S  S  S S  S  S S S S  S S S S S S  
--11-8-----------------------8-11-8-------8-|
-------9-------------------9--------9---9---|
---------8---------------8------------8-----|
-----------10---------10--------------------|
--------------11-6-11-----------------------|
--------------------------------------------|


   |-3-| |--3--| |--3--| |-3-|  |-3-| |-3-|  
   S S S S  S  S S  S  S S S S  S S S S S S  
--10-8-----------------------8-10-8-------8-|
-------9-------------------9--------9---9---|
---------8---------------8------------8-----|
-----------10---------10--------------------|
--------------11-6-11-----------------------|
--------------------------------------------|


   |-3-| |--3-| |--3-| |-3-|  |-3-| |-3-|  
   S S S S S  S S  S S S S S  S S S S S S  
--11-7---------------------7-11-7-------7-|
-------8-----------------8--------8---8---|
---------7-------------7------------7-----|
-----------9---------9--------------------|
-------------10-5-10----------------------|
------------------------------------------|


   |-3-| |--3-|  |--3--|  |--3--|  |--3--|  |--3--|  
   S S S S S  S  S  S  S  S  S  S  S  S  S  S  S  S  
--10-7----------------------10-15-10----------10-15-|
-------8-----------------12----------12----12-------|
---------7------------12----------------12----------|
-----------9-------12-------------------------------|
-------------10-14----------------------------------|
----------------------------------------------------|


   |--3--|  |--3--|  |--3--|  |--3--|  |--3--|  |--3--|  
   S  S  S  S  S  S  S  S  S  S  S  S  S  S  S  S  S  S  
--20-16----------------------------16-20-16----------16-|
--------18----------------------18----------18----18----|
-----------17----------------17----------------17-------|
--------------18----------18----------------------------|
-----------------20-15-20-------------------------------|
--------------------------------------------------------|


   |--3--|  |--3--|  |--3--|  |--3--|  |--3--|  |--3--|  
   S  S  S  S  S  S  S  S  S  S  S  S  S  S  S  S  S  S  
--21-16----------------------------16-21-16----------16-|
--------18----------------------18----------18----18----|
-----------18----------------18----------------18-------|
--------------18----------18----------------------------|
-----------------20-16-20-------------------------------|
--------------------------------------------------------|


   |--3--|  |--3--|  |--3--|  |--3--|  |--3--|  |--3--|  
   S  S  S  S  S  S  S  S  S  S  S  S  S  S  S  S  S  S  
--20-16----------------------------16-20-16----------16-|
--------16----------------------16----------16----16----|
-----------17----------------17----------------17-------|
--------------18----------18----------------------------|
-----------------18-15-18-------------------------------|
--------------------------------------------------------|


   |--3--|  |--3--|  |--3--|  |--3--|  |--3--|  |--3--|  
   S  S  S  S  S  S  S  S  S  S  S  S  S  S  S  S  S  S  
--18-15----------------------------15-18-15----------15-|
--------16----------------------16----------16----16----|
-----------15----------------15----------------15-------|
--------------17----------17----------------------------|
-----------------18-13-18-------------------------------|
--------------------------------------------------------|


   |--3--|  |--3--|  |--3--|  |--3--|  |--3--|  |--3--|  
   S  S  S  S  S  S  S  S  S  S  S  S  S  S  S  S  S  S  
--19-16-13----------16-13-10----------------------------|
--------------------------------------------------------|
-----------19-16-13----------16-13-10-16-13-10----------|
--------------------------------------------------------|
-----------------------------------------------17-14-11-|
--------------------------------------------------------|


   |--3--|  |--3--|  |--3--|  |--3--|  |--3--|  |--3--|  
   S  S  S  S  S  S  S  S  S  S  S  S  S  S  S  S  S  S  
--16-13-10----------------------------------------------|
--------------------18-15-12----------------------------|
-----------16-13-10-------------------------------------|
-----------------------------18-15-12-18-15-12----------|
--------------------------------------------------------|
-----------------------------------------------19-16-13-|


   |--3--|  |--3--|  |--3--|  |--3--|  |--3--|  |--3--|  
   S  S  S  S  S  S  S  S  S  S  S  S  S  S  S  S  S  S  
--16-13----------------------------13-16-13----------13-|
--------14----------------------14----------14----14----|
-----------13----------------13----------------13-------|
--------------15----------15----------------------------|
-----------------16-11-16-------------------------------|
--------------------------------------------------------|


   |--3--|  |--3--|  |--3--|  |--3--|  |--3--|  |--3--|  
   S  S  S  S  S  S  S  S  S  S  S  S  S  S  S  S  S  S  
--15-13----------------------------13-15-13----------13-|
--------14----------------------14----------14----14----|
-----------13----------------13----------------13-------|
--------------15----------15----------------------------|
-----------------16-11-16-------------------------------|
--------------------------------------------------------|


   |--3--|  |--3--|  |--3--|  |--3--|  |--3--|  |--3--|  
   S  S  S  S  S  S  S  S  S  S  S  S  S  S  S  S  S  S  
--16-13----------------------------13-16-13----------13-|
--------14----------------------14----------14----14----|
-----------13----------------13----------------13-------|
--------------15----------15----------------------------|
-----------------16-11-16-------------------------------|
--------------------------------------------------------|


   |--3--|  |--3--|  |--3--|  |--3--|  |--3--|  |--3--|  
   S  S  S  S  S  S  S  S  S  S  S  S  S  S  S  S  S  S  
--15-13----------------------------13-15-13----------13-|
--------14----------------------14----------14----14----|
-----------13----------------13----------------13-------|
--------------15----------15----------------------------|
-----------------16-11-16-------------------------------|
--------------------------------------------------------|


   |--3--|  |--3--|  |--3--|  |--3--|  |--3--|  |--3--|  
   S  S  S  S  S  S  S  S  S  S  S  S  S  S  S  S  S  S  
--16-12----------------------------12-16-12----------12-|
--------13----------------------13----------13----13----|
-----------12----------------12----------------12-------|
--------------14----------14----------------------------|
-----------------15-10-15-------------------------------|
--------------------------------------------------------|


   |--3--|  |--3--|  |--3--|  |--3--|  |--3--|  |--3--|  
   S  S  S  S  S  S  S  S  S  S  S  S  S  S  S  S  S  S  
--15-12----------------------------12-15-12----------12-|
--------13----------------------13----------13----13----|
-----------12----------------12----------------12-------|
--------------14----------14----------------------------|
-----------------15-10-15-------------------------------|
--------------------------------------------------------|


   |--3--|  |--3--|  |--3--|  |--3--|  |--3--|  |--3--|  
   S  S  S  S  S  S  S  S  S  S  S  S  S  S  S  S  S  S  
--16-12----------------------------12-16-12----------12-|
--------13----------------------13----------13----13----|
-----------12----------------12----------------12-------|
--------------14----------14----------------------------|
-----------------15-10-15-------------------------------|
--------------------------------------------------------|


            |--3--|  |--3--|  |--3--|  |--3--|  
   E    E   S  S  S  S  S  S  S  S  S  S  S  S  
--15s--20-----20----20----20----20----20----20-|
-----------------------------------------------|
-----------17----17----17----17----17----17----|
-----------------------------------------------|
-----------------------------------------------|
-----------------------------------------------|


   |--3--|  |--3--|  |--3--|    |----3----|    |----3----|    |----3----|    
   S  S  S  S  S  S  S  S  S    S    S    S    S    S    S    S    S    S    
-----20----20----20----20------20pb------20pb------20pb------20pb------20pb-|
----------------------------------------------------------------------------|
--17----17----17----17----17pb------17pb------17pb------17pb------17pb------|
----------------------------------------------------------------------------|
----------------------------------------------------------------------------|
----------------------------------------------------------------------------|


  H.             
---------------||
---------------||
---------------||
--2------------||
--2------------||
--0------------||




Duration Legend
---------------
W - whole
H - half
Q - quarter
E - 8th
S - 16th
T - 32nd
X - 64th
. - note dotted
|-n-|  - n-tuplets


Tablature Legend
----------------
L - tied note
x - dead note
g - grace note
(n) - ghost note
> - accentuded note
NH - natural harmonic
AH - artificial harmonic
TH - tapped harmonic
SH - semi harmonic
PH - pitch harmonic
h - hammer on
p - pull off
b - bend
br - bendRelease
pb - preBend
pbr - preBendRelease
brb - bendReleaseBend
\n/ - tremolo bar dip
\n - tremolo bar dive
-/n - tremolo bar Release up
/n\ - tremolo bar inverted dip
/n - tremolo bar return
-\n - tremolo bar Release down
S - shift slide
s - legato slide
/ -  slide into from below or out of upwards
\ -  slide into from above or out of downwards
~ - vibrato
W - wide vibrato
tr - trill
TP - tremolo picking
T - tapping
S - slap
P - pop
< - fade in
^ - brush up
v - brush down
comments
We did not receive enough feedback on this tab! Please rate:
print report bad tab
1 2 3 4 5
I want to post or [tab]
guest
You may want to rate the tab now too:
select rating
Please do not post tabs as comments. Select "correction" instead!