Oops, an error
Loading. Please wait.

Get Out Of My Yard solo tab

version 1
version 1

Solo

Interactive

9,919 views 1 this week
no commentswrite comment
1 2 3 4 5
x 5
add to favorites
×
Save as Personal and add changes to this tab that will be seen only by you. Learn more ›
×
You can save this tab as Personal to edit and correct it or add notes. All changes will be seen only by you. Learn more »
launch autoscroll
font size
0
reset
how to read this tab
guitar tuner
edit
Autoscroll
slow
fast
+/-
esc
set tempo
stop
Author
This is based on a Video I found of Paul playing this without a Band in the background.

|-----------------------------|
|-----------------------------|
|-----------------------------|
|-(2)----------7^-5-7^-5------|
|-(2)--0/7-5h7-----------7-7--|
|-(0)-------------------------|

|-------------------------------|
|--------------10^-8-10^-8------|
|------0/9-7h9-------------9-9--|
|-(0)---------------------------|
|-(0)---------------------------|
|-------------------------------|

|-----------------17^-15-17^-15--------12-12------12-12-----12-12-|
|------0/17-15h17---------------17-15^--------15^-------15^-------|
|-(5)-------------------------------------------------------------|
|-(5)-------------------------------------------------------------|
|-(3)-------------------------------------------------------------|
|-----------------------------------------------------------------|

The rest is pretty much impossible to tab. Just improvise in C harmoinc minor though,
what he does on all his live performances videos. In the recorded version he doesnt play
chords at the start of the phases, but he does when its live and it sounds mad so I 
them in there aswell.

Paul Gilbert rocks!

Any questions email me campo_captain_charisma@hotmail.com

Peace out

            
            
Suggest correction
Creating personal tab
Creating personal tab
You can edit any tab online and save it as your Personal.

You can edit, replace or remove any tab part or add personal notes – all changes will be seen only by you.

Personal tabs can be accessed anytime from any device, even offline.
Learn more »
comments
print report bad tab
guest
You may want to rate the tab now too:
select rating
Wanna post a correction for this tab? Suggest correction