Oops, an error
Loading. Please wait.

Haydn Symphony No88 Finale Tab

version 1
version 1

Whole song

Interactive

7,428 views 12 this week
1 commentread comment
1 2 3 4 5
3 more votes to show rating
add to favorites
launch autoscroll
font size
0
reset
how to read this tab
guitar tuner
Autoscroll
slow
fast
+/-
esc
set tempo
stop
Help us to improve Ultimate-Guitar.com Take our survey!
×
Author
Difficulty
intermediate
-----------------------------------------------------------------------------
         haydn symphony no88 finale - Paul Gilbert
----------------------------------------------------------------------------
tabbed by kebzicum

this is the ending of the haydn symphony no88 finale, the first half of it
is tabbed alrdy tabbed on UG as a Gpro file.

PG does a few stringskipped arpegios, however i tabbed them as sweeps cos
its easier to play given the huge position shifts he does

Tuning:standard

e|--10-10-7-7------------------------12-10-8-10------10-10-7-7--------------|
B|------------10-8-7-8-----8-8-10-10------------12-8-----------10-8-7-8-----|
G|---------------------7-7----------------------------------------------7-7-|
D|--------------------------------------------------------------------------|
A|--------------------------------------------------------------------------|
E|--------------------------------------------------------------------------|

e|--15-15--12-12-------------------20--20-20--20--20------------------------|
B|---------------------------------15--15-15--15--15------------------------|
G|-----------------12-11-9-11-12--------------------------------------------|
D|--------------------------------------------------------------------------|
A|--------------------------------------------------------------------------|
E|--------------------------------------------------------------------------|

e|-19-22-20-19-17-20-19-17-15-19-17-15-14-15-17-19---------------------15---|
B|-------------------------------------------------17-20-19-17-15-17-19-----|
G|--------------------------------------------------------------------------|
D|--------------------------------------------------------------------------|
A|--------------------------------------------------------------------------|
E|--------------------------------------------------------------------------|


e|-12-15-14-12-------------------------------------------------------7------|
B|-------------15-13-12-------15-13-12--10-13-12-10--8-12-10-8-7-8-10-------|
G|----------------------14-16-----------------------------------------------|
D|--------------------------------------------------------------------------|
A|--------------------------------------------------------------------------|
E|--------------------------------------------------------------------------|

e|----------------7--10------8--12-10-8------------12--15-14-12-------------|
B|--------------8----------8------------12-10----13-------------15-13-------|
G|-9-12-11-9--7----------9---------------------12---------------------------|
D|--------------------------------------------------------------------------|
A|--------------------------------------------------------------------------|
E|--------------------------------------------------------------------------|

e|----------15--19--17--15------------------19-22-20-19---------------------|
B|-------15-----------------19--17-------20------------22-20-19-20-22-20-19-|
G|----16------------------------------19------------------------------------|
D|--------------------------------------------------------------------------|
A|--------------------------------------------------------------------------|
E|--------------------------------------------------------------------------|


e|---------------15--17--17--15---------------------------------------------|
B|-----------------------19-------------------------------------------------|
G|--21-19-17-16--16--16------16---------------------------------------------|
D|--------------------------------------------------------------------------|
A|--------------------------------------------------------------------------|
E|--------------------------------------------------------------------------|
************************************

| /   slide up
| \   slide down
| h   hammer-on
| p   pull-off
| ~   vibrato
| +   harmonic
| x   Mute note
| b   Bend
| pb  Pre-bend
| br  Bend release
| pbr Pre-bend release
| brb Bend release bend

************************************
Suggest correction
Give kudos to tab author, rate the tab!
1 2 3 4 5
comments
print report bad tab
1 comment total.
0 reply
kebzicum 71 Jun 22, 2010 12:44 AM

thats the ending

---15-17--14-15--
-------------
---16-17--14-16

guest
You may want to rate the tab now too:
select rating
Wanna post a correction for this tab? Suggest correction