Oops, an error
Loading. Please wait.

I Am Not The One Who Wants To Be With You tab

466 views 6 this week
3 commentsread comments
1 2 3 4 5
3 more votes to show rating
add to favorites
×
Save as Personal and add changes to this tab that will be seen only by you. Learn more ›
×
You can save this tab as Personal to edit and correct it or add notes. All changes will be seen only by you. Learn more »
launch autoscroll
font size
0
reset
how to read this tab
guitar tuner
edit
Autoscroll
slow
fast
+/-
esc
set tempo
stop
Author
Difficulty
I am not the one (who wants to be with you) - Paul gilbert

Tabbed by Rick de Jong


Intro solo
E------------------------------7-8-5---------------------------
B-8b10----------------------5--------7-5-7---------------------
G------5b--------------------------------7--5-7-5--------------
D----------7-7-7-0-5-5--5-5-----------------------7--5-7-5---5-
A----------------------------------------------------------7---
E--------------------------------------------------------------

E-------------------------
B-------------------------
G---------5--5b-----------
D-7-5------------7~-------
A-----7-5-----------------
E-------------------15\\\-

Main riff
E------------------------------------------
B------------------------------------------
G-------0-2-0---------------0------2--0--2-
D-0-1-2-------2-1-0---0h1h2--------2--0--2-
A-------------------3---------3-0--0--x--0-
E-------------------------------------3---- 4x

E------------------------------------------
B------------------------------------------
G-5-7----5-5---5---------------------------
D-5-7--------7---7---5-7--7-7-7-7\---------
A-3-5--------------------------------12\\\-
E------------------------------------------

Main riff 1x

E----------------------------------
B--------------5-------------------
G-5-7----5-5-----5b----------------
D-5-7--------7--------7---7--7-7-7-
A-3-5-------------------7----------
E----------------------------------

Main riff 1x

E--------------------------
B--------3-----------------
G--------2------2----------
D-5-2----0------2----------
A-5-2---------3-0----10\\\-
E-3-0----------------------

Main riff 2x

E----------------------------------
B----------------------------------
G-5-7----5-5---5----------------5b-
D-5-7--------7---7---5-7--7-7-7----
A-3-5------------------------------
E----------------------------------

Main riff 1x

E-----------------------------------
B-----------------------------------
G-5-7----5-5---5---5b---------------
D-5-7--------7---7------7-7-7-7-7-7-
A-3-5-------------------------------
E-----------------------------------

Main riff 1x

E----------------------------
B--------3---------3---------
G--------2---------2----2----
D-5-2----0----2----0----2----
A-5-2---------2---------0----
E-3-0---------0--------------

Bridge
E-----------------------------------------------
B----------3--------------------3----3--4--5--8-
G----------2--------------------2----2--3--4--7-
D-7-6-5----0----3--5--7----5----0----0--1--2--5-
A-7-6-5---------3--5--7----5--------------------
E-5-4-3---------1--3--5----3--------------------

Solo
E---------------------        ---------------
B----------3--4--5--8-        -3--4--5--8--3-
G-2--------2--3--4--7-        -2--3--4--7--2-
D-2--------0--1--2--5-        -0--1--2--5--0-
A-0-------------------        ---------------
E--------------------- 4x     ---------------

Main riff 4x

E---------------------------------
B---------------------------------
G-5-7----5-5---5------------------
D-5-7--------7-----7-5-7-x-7-7-7\-
A-3-5-----------------------------
E---------------------------------

Main riff 1x

E---------------------------
B---------------------------
G-5-5---9r7---5-------------
D-----7---------7-5b7-7-5-7-
A---------------------------
E---------------------------

Main riff 1x



E--------------------------------------------------------
B--------3---------3---------3---------------------------
G--------2---------2---------2------5--------------------
D---2----0----2----0----2----0------5--------------------
A---2---------2---------2---------0-3--------------------
E-3-0---------0---------0----------------------13\\\--3b-

E-----------
B-----------
G-----------
D-2--2-4--4-
A-0--0-0--0-
E----------- x a lot

E---5-----5-------------8-9----------------------
B---------------4-----3-7-8--8888888888888-------
G-----------------------8-9--9999999999999-----2-
D-7---7-5---5-4---4-3--------------------------2-
A----------------------------------------------0-
E------------------------------------------------

            
            
Suggest correction
Creating personal tab
Creating personal tab
You can edit any tab online and save it as your Personal.

You can edit, replace or remove any tab part or add personal notes – all changes will be seen only by you.

Personal tabs can be accessed anytime from any device, even offline.
Learn more »
Give kudos to tab author, rate the tab!
1 2 3 4 5
comments
print report bad tab
3 comments total.
-1 reply
jameelmcgs 10 Oct 25, 2016 02:18 PM

didn't like this contribution

0 reply
Rickieman86 93 Nov 25, 2016 12:58 PM

@jameelmcqs Please give some feedback which i can improve my tab with, this does not help anyone...

0 reply
jameelmcgs 10 Nov 25, 2016 01:02 PM

haven't managed to check it out yet...no idea why this comment is here. Very sorry about that

guest
You may want to rate the tab now too:
select rating
Wanna post a correction for this tab? Suggest correction