Oops, an error
Loading. Please wait.

Sequenced String Skipping Tab

version 1
version 1

Whole song

Interactive

3,949 views 3 this week
no commentswrite comment
1 2 3 4 5
x 3
add to favorites
launch autoscroll
font size
0
reset
how to read this tab
guitar tuner
Autoscroll
slow
fast
+/-
esc
set tempo
stop
Difficulty
intermediate
Here's a video of the tab, to see how he plays it:
http://www.youtube.com/watch?v=r6JvBKOxDPQ

       S  S  S  S  S  S  S  S  S  S  S  S  S  S  S  S  
e||---15-12----------------12-------15-12----12-------|
B||---------------------------------------------------|
G||*--------16-12----12-16----16-12-------16----16-12-|
D||*--------------14----------------------------------|
A||---------------------------------------------------|
E||---------------------------------------------------|
 
 
     S  S  S  S  S  S  S  S  S  S  S  S  S  S  S  S  
e|--15-12----------------12-15-12----------14-------|
B|--------------------------------------------15-12-|
G|--------16-12----12-16----------16-12-14----------|
D|--------------14----------------------------------|
A|--------------------------------------------------|
E|--------------------------------------------------|
 
 
     S  S  S  S  S  S  S  S  S  S  S  S  S  S  S  S  
e|--15-12----------------12-------15-12----12-------|
B|--------------------------------------------------|
G|--------16-12----12-16----16-12-------16----16-12-|
D|--------------14----------------------------------|
A|--------------------------------------------------|
E|--------------------------------------------------|
 
 
     S  S  S  S  S  S  S  S  S  S  S  S  S  S  S  S  
e|--15-12----------------12-15-12----------14-------|
B|--------------------------------------------15-12-|
G|--------16-12----12-16----------16-12-14----------|
D|--------------14----------------------------------|
A|--------------------------------------------------|
E|--------------------------------------------------|
 
 
     S  S  S  S  S  S  S  S  S  S  S  S  S  S  S  S  
e|--15-12----------------12-------15-12----12-------|
B|--------------------------------------------------|
G|--------17-12----12-17----17-12-------17----17-12-|
D|--------------14----------------------------------|
A|--------------------------------------------------|
E|--------------------------------------------------|
 
 
     S S  S S  S S  S S  S S  S S  S S  S S  
e|--12-8--------------8-12-8-14-8-12-8------|
B|------------------------------------------|
G|-------12-9----9-12------------------12-9-|
D|------------10----------------------------|
A|------------------------------------------|
E|------------------------------------------|
 
 
     S  S  S  S  S  S  S  S  S  S  S  S  S  S  S  S  
e|--14-10----------------10-------14-10----10-------|
B|--------------------------------------------------|
G|--------14-11----11-14----14-11-------14----14-11-|
D|--------------12----------------------------------|
A|--------------------------------------------------|
E|--------------------------------------------------|
 
 
     S  S  S  S  S  S  S  S  S  S  S  S  S  S  S  S     
e|--14-11---------------------------------------------||
B|-----------------------------------12-16-12---------||
G|--------14-11----11-14-11-------------------------*-||
D|--------------13-------------13-16----------16-13-*-||
A|--------------------------14------------------------||
E|----------------------------------------------------||
 
 
     S  S  S  S  S  S  S  S  S  S  S  S  S  S  S  S  
e|--16-12----------------12-------------------------|
B|-----------------------------------12-16-12-------|
G|--------16-13----13-16----------------------------|
D|--------------14-------------13-16----------16-13-|
A|--------------------------14----------------------|
E|--------------------------------------------------|
 
 
     S S  S S  S S  S S  S S  S S  S S  S S    S S S S S S S S S S S S S S S S  
e|--12-9--------------9---------------------|--9-5-----------5-----------------|
B|------------------------------9-12-9------|------------------------5-9-5-----|
G|-------13-9----9-13-----------------------|------9-6---6-9-------------------|
D|------------11-----------9-13--------13-9-|----------7---------6-9-------9-6-|
A|----------------------11------------------|------------------7---------------|
E|------------------------------------------|----------------------------------|
 
 
    S S S S S S S S S S  S S  S S  S S     S  S  S  S  S  S  S  S  H           
e|--9-5-----------5--------7-11-7------|--16-12-------------12----16~--------||
B|-------------------------------------|-------------------------------------||
G|------9-6---6-9-----8-11--------11-8-|--------16-13----13----16------------||
D|----------7-------9------------------|--------------14---------------------||
A|-------------------------------------|-------------------------------------||
E|-------------------------------------|-------------------------------------||
Suggest correction
Give kudos to tab author, rate the tab!
1 2 3 4 5
comments
print report bad tab
guest
You may want to rate the tab now too:
select rating
Wanna post a correction for this tab? Suggest correction