Oops, an error
Loading. Please wait.

Silence Followed By A Deafening Roar bass

version 1
version 1

Whole song

Interactive

25 views 1 this week
no commentswrite comment
1 2 3 4 5
3 more votes to show rating
add to favorites
×
Save as Personal and add changes to this tab that will be seen only by you. Learn more ›
×
You can save this tab as Personal to edit and correct it or add notes. All changes will be seen only by you. Learn more »
launch autoscroll
font size
0
reset
guitar tuner
backing track
0:00
0:00
edit
Autoscroll
slow
fast
+/-
esc
set tempo
stop
Author
Difficulty
Title: Silence Followed By A Deafening Roar
Artist: Paul Gilbert
Album: Silence Followed By A Deafening Roar
Tuning: Standard (E A D G)
Tab Author: Pearce Hamblin (The Bass Diaries)

  [4/4 - Intro]
   1  e  +  a  2  e  +  a  3  e  +  a  4  e  +  a    1  e  +  a  2  e  +  a  3  e  +  a  4  e  +  a
G|-------------------------------------------------|-------------------------------------------------|
D|-------------------------------------------------|-------------------------------------------------|
A|-------------------------------------------------|-------------------------------------------------|
E|-0-----------------------------------------------|-------------------------------------------------|


   1  e  +  a  2  e  +  a  3  e  +  a  4  e  +  a    1  e  +  a  2  e  +  a  3  e  +  a  4  e  +  a
G|-------------------------------------------------|-------------------------------------------------|
D|-------------------------------------------------|-------------------------------------------------|
A|-------------------------------------------------|-------------------------------------------------|
E|-5-----------------------------------------------|-------------------------------------------------|


   1  e  +  a  2  e  +  a  3  e  +  a  4  e  +  a    1  e  +  a  2  e  +  a  3  e  +  a  4  e  +  a
G|-------------------------------------------------|-------------------------------------------------|
D|-------------------------------------------------|-------------------------------------------------|
A|-------------------------------------------------|-------------------------------------------------|
E|-0-----------------------------------------------|-------------------------------------------------|


   1  e  +  a  2  e  +  a  3  e  +  a  4  e  +  a    1  e  +  a  2  e  +  a  3  e  +  a  4  e  +  a
G|-------------------------------------------------|-------------------------------------------------|
D|-------------------------------------------------|-------------------------------------------------|
A|-------------------------------------------------|-------------------------------------------------|
E|-5-----------------------------------------------|-------------------------------------------------|


   1  e  +  a  2  e  +  a  3  e  +  a  4  e  +  a    1  e  +  a  2  e  +  a  3  e  +  a  4  e  +  a
G|-------------------------------------------------|-------------------------------------------------|
D|-------------------------------------------------|-------------------------------------------------|
A|-4-----------------------------------------------|-------------------------------------------------|
E|-------------------------------------------------|-------------------------------------------------|


   1  e  +  a  2  e  +  a  3  e  +  a  4  e  +  a    1  e  +  a  2  e  +  a  3  e  +  a  4  e  +  a
G|-------------------------------------------------|-------------------------------------------------|
D|-------------------------------------------------|-------------------------------------------------|
A|-------------------------------------------------|-------------------------------------------------|
E|-5-----------------------------------------------|-------------------------------------------------|


   1  e  +  a  2  e  +  a  3  e  +  a  4  e  +  a    1  e  +  a  2  e  +  a  3  e  +  a  4  e  +  a
G|-------------------------------------------------|-------------------------------------------------|
D|-------------------------------------------------|-------------------------------------------------|
A|-------------------------------------------------|-------------------------------------------------|
E|-7-----------------------------------------------|-------------------------------------------------|


   1  e  +  a  2  e  +  a  3  e  +  a  4  e  +  a    1  e  +  a  2  e  +  a  3  e  +  a  4  e  +  a
G|-------------------------------------------------|-------------------------------------------------|
D|-------------------------------------------------|-------------------------------------------------|
A|-------------------------------------------------|-------------------------------------------------|
E|-------------------------------------------------|-------------------------------------------------|

  [3/4]
   1  e  +  a  2  e  +  a  3  e  +  a    1  e  +  a  2  e  +  a  3  e  +  a
G|-------------------------------------|-------------------------------------|
D|-------------------------------------|-------------------------2-----------|
A|-4-----4-----4-----4-----4-----------|-------------2-----4-----------2-----|
E|-------------------------------0-----|-2-----4-----------------------------|


   1  e  +  a  2  e  +  a  3  e  +  a    1  e  +  a  2  e  +  a  3  e  +  a
G|-------------------------------------|-------------------------------------|
D|-------------------------------------|-------------------------------------|
A|-4-----4-----4-----4-----4-----0-----|-0-----0-----------2-----2-----------|
E|-------------------------------------|-------------------------------------|


   1  e  +  a  2  e  +  a  3  e  +  a    1  e  +  a  2  e  +  a  3  e  +  a
G|-------------------------------6-----|-4-----2-----------------------------|
D|-------------------------------------|-------------6-----4-----2-----------|
A|-4-----4-----4-----4-----4-----------|-------------------------------6-----|
E|-------------------------------------|-------------------------------------|


   1  e  +  a  2  e  +  a  3  e  +  a    1  e  +  a  2  e  +  a  3  e  +  a
G|-------------------------------------|-------------------------------------|
D|-------------------------------------|-------------------------------------|
A|-2-----------------0-----------------|-7-----------------6-----------0-----|
E|-------------------------------------|-------------------------------------|


   1  e  +  a  2  e  +  a  3  e  +  a    1  e  +  a  2  e  +  a  3  e  +  a
G|-------------------------------------|-------------------------------------|
D|-------------------------------------|-------------------------2-----------|
A|-4-----4-----4-----4-----4-----------|-------------2-----4-----------2-----|
E|-------------------------------0-----|-2-----4-----------------------------|


   1  e  +  a  2  e  +  a  3  e  +  a    1  e  +  a  2  e  +  a  3  e  +  a
G|-------------------------------------|-------------------------------------|
D|-------------------------------------|-------------------------------------|
A|-4-----4-----4-----4-----4-----0-----|-------0-----------2-----2-----------|
E|-------------------------------------|-------------------------------------|


   1  e  +  a  2  e  +  a  3  e  +  a    1  e  +  a  2  e  +  a  3  e  +  a
G|-------------------------------6-----|-4-----2-----------------------------|
D|-------------------------------------|-------------6-----4-----2-----------|
A|-4-----4-----4-----4-----4-----------|-------------------------------6-----|
E|-------------------------------------|-------------------------------------|


   1  e  +  a  2  e  +  a  3  e  +  a    1  e  +  a  2  e  +  a  3  e  +  a
G|-------------------------------------|-------------------------------------|
D|-------------------------------------|-------------------------------------|
A|-2-----------------0-----------------|-7-----------------6\\\\\\\\\\\0-----|
E|-------------------------------------|-------------------------------------|

  [Solo 1]
   1  e  +  a  2  e  +  a  3  e  +  a    1  e  +  a  2  e  +  a  3  e  +  a
G|-------------------------------------|-------------------------------------|
D|-------------------------------------|-------------------------2-----------|
A|-4-----4-----4-----4-----4-----------|-------------2-----4-----------2-----|
E|-------------------------------0-----|-2-----4-----------------------------|


   1  e  +  a  2  e  +  a  3  e  +  a    1  e  +  a  2  e  +  a  3  e  +  a
G|-------------------------------------|-------------------------------------|
D|-------------------------------------|-------------------------------------|
A|-4-----4-----4-----4-----4-----0-----|-------0-----------2-----2-----------|
E|-------------------------------------|-------------------------------------|


   1  e  +  a  2  e  +  a  3  e  +  a    1  e  +  a  2  e  +  a  3  e  +  a
G|-------------------------------6-----|-4-----2-----------------------------|
D|-------------------------------------|-------------6-----4-----2-----------|
A|-4-----4-----4-----4-----4-----------|-------------------------------6-----|
E|-------------------------------------|-------------------------------------|


   1  e  +  a  2  e  +  a  3  e  +  a    1  e  +  a  2  e  +  a  3  e  +  a
G|-------------------------------------|-------------------------------------|
D|-------------------------------------|-------------------------------------|
A|-2-----------------0-----------------|-7-----------------6-----------------|
E|-------------------------------------|-------------------------------------|


   1  e  +  a  2  e  +  a  3  e  +  a    1  e  +  a  2  e  +  a  3  e  +  a
G|-------------------------------------|-------------------------------------|
D|-------------------------------------|-------------------------2-----------|
A|-4-----4-----4-----4-----4-----------|-------------2-----4-----------2-----|
E|-------------------------------0-----|-2-----4-----------------------------|


   1  e  +  a  2  e  +  a  3  e  +  a    1  e  +  a  2  e  +  a  3  e  +  a
G|-------------------------------------|-------------------------------------|
D|-------------------------------------|-------------------------------------|
A|-4-----4-----4-----4-----4-----0-----|-0-----0-----------2-----2-----------|
E|-------------------------------------|-------------------------------------|


   1  e  +  a  2  e  +  a  3  e  +  a    1  e  +  a  2  e  +  a  3  e  +  a
G|-------------------------------6-----|-4-----2-----------------------------|
D|-------------------------------------|-------------6-----4-----2-----------|
A|-4-----4-----4-----4-----4-----------|-------------------------------6-----|
E|-------------------------------------|-------------------------------------|


   1  e  +  a  2  e  +  a  3  e  +  a    1  e  +  a  2  e  +  a  3  e  +  a
G|-------------------------------------|-------------------------------------|
D|-------------------------------------|-------------------------------------|
A|-2-----------------0-----------0-----|-7-----------------6\\\\\\\\\\\0-----|
E|-------------------------------------|-------------------------------------|

  [Solo 2]
   1  e  +  a  2  e  +  a  3  e  +  a    1  e  +  a  2  e  +  a  3  e  +  a
G|-------------------------------------|-------------------------------------|
D|-------------------------------------|-------------------------2-----------|
A|-4-----4-----4-----4-----4-----------|-------------2-----4-----------2-----|
E|-------------------------------0-----|-2-----4-----------------------------|


   1  e  +  a  2  e  +  a  3  e  +  a    1  e  +  a  2  e  +  a  3  e  +  a
G|-------------------------------------|-------------------------------------|
D|-------------------------------------|-------------------------------------|
A|-4-----4-----4-----4-----4-----0-----|-0-----0-----------2-----2-----------|
E|-------------------------------------|-------------------------------------|


   1  e  +  a  2  e  +  a  3  e  +  a    1  e  +  a  2  e  +  a  3  e  +  a
G|-------------------------------6-----|-4-----2-----------------------------|
D|-------------------------------------|-------------6-----4-----2-----------|
A|-4-----4-----4-----4-----4-----------|-------------------------------6-----|
E|-------------------------------------|-------------------------------------|


   1  e  +  a  2  e  +  a  3  e  +  a    1  e  +  a  2  e  +  a  3  e  +  a
G|-------------------------------------|-------------------------------------|
D|-------------------------------------|-6-----------------4-----------------|
A|-2-----------------0-----------------|-------------------------------0-----|
E|-------------------------------------|-------------------------------------|


   1  e  +  a  2  e  +  a  3  e  +  a    1  e  +  a  2  e  +  a  3  e  +  a
G|-------------------------------------|-------------------------------------|
D|-------------------------------------|-------------------------2-----------|
A|-4-----4-----4-----4-----4-----------|-------------2-----4-----------2-----|
E|-------------------------------0-----|-2-----4-----------------------------|


   1  e  +  a  2  e  +  a  3  e  +  a    1  e  +  a  2  e  +  a  3  e  +  a
G|-------------------------------------|-------------------------------------|
D|-------------------------------------|-------------------------------------|
A|-4-----4-----4-----------4-----0-----|-------0-----------2-----2-----------|
E|-------------------------------------|-------------------------------------|


   1  e  +  a  2  e  +  a  3  e  +  a    1  e  +  a  2  e  +  a  3  e  +  a
G|-------------------------------6-----|-4-----2-----------------------------|
D|-------------------------------------|-------------6-----4-----2-----------|
A|-4-----4-----4-----4-----4-----------|-------------------------------6-----|
E|-------------------------------------|-------------------------------------|


   1  e  +  a  2  e  +  a  3  e  +  a    1  e  +  a  2  e  +  a  3  e  +  a
G|-------------------------------------|-------------------------------------|
D|-------------------------------------|-------------------------------------|
A|-2-----------------0-----------------|-7-----------------6-----------------|
E|-------------------------------------|-------------------------------------|


   1  e  +  a  2  e  +  a  3  e  +  a    1  e  +  a  2  e  +  a  3  e  +  a
G|-------------------------------------|-------------------------------------|
D|-------------------------------------|-------------------------------------|
A|-------------------------------------|-0-----------------2-----------------|
E|-2-----------------4-----------------|-------------------------------------|

  [4/4 - Section 1]
   1  e  +  a  2  e  +  a  3  e  +  a  4  e  +  a    1  e  +  a  2  e  +  a  3  e  +  a  4  e  +  a
G|-------------------------------------------------|-------------------------------------------------|
D|-------------------------------------------------|-------------------------------------------------|
A|-------------------------------------------------|-7-----------------------------------------------|
E|-0-----------------------------------------------|-------------------------------------------------|


   1  e  +  a  2  e  +  a  3  e  +  a  4  e  +  a    1  e  +  a  2  e  +  a  3  e  +  a  4  e  +  a
G|-------------------------------------------------|-------------------------------------------------|
D|-------------------------------------------------|-7-----------------------------------------------|
A|-------------------------------------------------|-------------------------------------------------|
E|-5-----------------------------------------------|-------------------------------------------------|


   1  e  +  a  2  e  +  a  3  e  +  a  4  e  +  a    1  e  +  a  2  e  +  a  3  e  +  a  4  e  +  a
G|-------------------------------------------------|-------------------------------------------------|
D|-------------------------------------------------|-------------------------------4-----------6-----|
A|-------------------------------------------------|-7-----------------------------------------------|
E|-0-----------------------------------------------|-------------------------------------------------|


   1  e  +  a  2  e  +  a  3  e  +  a  4  e  +  a
G|-------------------------------------------------|
D|-------------------------------------------------|
A|-------------------------------------------------|
E|-5-----------------------------------------5-----|

   1 - e - + - a - 2 - e - + a - 3 - e - + - a - 4 - e - + a -
G|--------------------------------------------------------------|
D|-7-----------------------------7---9---7---7-6-7---6----------|
A|-------------------------------------------------------9---7--|
E|--------------------------------------------------------------|


   1  e  +  a  2  e  +  a  3  e  +  a  4  e  +  a    1  e  +  a  2  e  +  a  3  e  +  a  4  e  +  a
G|-------------------------------------------------|-------------------------------------------------|
D|-------------------------------------------------|-------------------------------------------------|
A|-------------------------------------------------|-7-----------------7-----------------7-----------|
E|-9------------------------------------/////9-----|-------9-----7-----------9-----7-----------9-----|


   1  e  +  a  2  e  +  a  3  e  +  a  4  e  +  a    1  e  +  a  2  e  +  a  3  e  +  a  4  e  +  a
G|-------------------------------------------------|-------------------------------------------------|
D|-------------------------------------------------|-7-----------------6-----------------------------|
A|-------------------------------------------------|-------------------------------------9\\\\\\\\\\\|
E|-5-----------------------------------------7--9--|-------------------------------------------------|


   1  e  +  a  2  e  +  a  3  e  +  a  4  e  +  a    1   +   2   +   3   +   1   +   2   +   3   +
G|-------------------------------------------------|-------------------------------------------------|
D|-------------------------------------------------|-------------------------------------------------|
A|-2-----------------------------------------------|-2-------------------------------0-------2-------|
E|-------------------------------------------------|---------0-------2-------4-----------------------|


   1  e  +  a  2  e  +  a  3  e  +  a  4  e  +  a    1  e  +  a  2  e  +  a  3  e  +  a  4  e  +  a
G|-------------------------------------------------|-------------------------------------------------|
D|-------------------------------------------------|-------------------------------------------------|
A|-0--------------------------------4//12----0--12-|-12----------------------------------------------|
E|-------------------------------------------------|-------------------------------------------------|


   1  e  +  a  2  e  +  a  3  e  +  a  4  e  +  a    1  e  +  a  2  e  +  a  3  e  +  a  4  e  +  a
G|-------------------------------------------------|-------------------------------------------------|
D|-------------------------------------------------|-------------------------------------------------|
A|-0-----------------------------------------------|-------------------------------------------------|
E|-------------------------------------------------|-------------------------------------------------|

  [3/4 - Solo 3] 
   1  e  +  a  2  e  +  a  3  e  +  a    1  e  +  a  2  e  +  a  3  e  +  a
G|-------------------------------------|-------------------------------------|
D|-------------------------------------|-------------------------------------|
A|-------------------------------------|-------------------------------------|
E|-4-----4-----4-----4-----4\\\\\\\\\\\|-X-----X-----------X-----X-----------|


   1  e  +  a  2  e  +  a  3  e  +  a    1  e  +  a  2  e  +  a  3  e  +  a
G|-------------------------------------|-------------------------------------|
D|-------------------------------------|-------------------------------------|
A|-------------------------------------|-------------------------------------|
E|-4-----4-----4-----4-----4\\\\\\\\\\\|-------------------4/////16\\\\\\\\\\|


   1  e  +  a  2  e  +  a  3  e  +  a    1  e  +  a  2  e  +  a  3  e  +  a
G|-------------------------------------|-------------------------------------|
D|-------------------------------------|-7-----------------------------------|
A|-------------------7-----------------|-------------------7-----------------|
E|-5-----------5-----------------5-----|-------------5-----------------5-----|


   1  e  +  a  2  e  +  a  3  e  +  a    1  e  +  a  2  e  +  a  3  e  +  a
G|-------------------6-----------------|-9-----------------------------------|
D|-------------------------------------|-------------------------------------|
A|-------------------------------------|-------------------------X-----------|
E|-5-----------5-----------------5-----|-------------------------------------|


   1  e  +  a  2  e  +  a  3  e  +  a    1  e  +  a  2  e  +  a  3  e  +  a
G|-------------------------------------|-------------------------------------|
D|-------------------------------------|-------------------------------------|
A|-------------------------------------|-------------------------------------|
E|-4-----4-----4-----4-----4\\\\\\\\\\\|-X-----X-----------X-----X-----------|


   1  e  +  a  2  e  +  a  3  e  +  a    1  e  +  a  2  e  +  a  3  e  +  a
G|-------------------------------------|-------------------------------------|
D|-------------------------------------|-------------------------------------|
A|-------------------------------------|-------------------------------------|
E|-4-----4-----4-----4-----4-----------|-------4/////16\\\\\\\\\\\\\\\\\\\\\\|


   1  e  +  a  2  e  +  a  3  e  +  a    1  e  +  a  2  e  +  a  3  e  +  a
G|-------------------------------------|-------------------------------------|
D|-------------------------------------|-7-----------------------------------|
A|-------------------7-----------------|-------------------7-----------------|
E|-5-----------------------------5-----|-------------------------------5-----|


   1  e  +  a  2  e  +  a  3  e  +  a    1  e  +  a  2  e  +  a  3  e  +  a
G|-------------------------------------|-------------------------------------|
D|-------------------------------------|-9-----------------------------------|
A|-------------------9-----------------|-------------------------------------|
E|-7-----------7-----------------7-----|-------------------------------------|

  [Breakdown]
   1  e  +  a  2  e  +  a  3  e  +  a    1  e  +  a  2  e  +  a  3  e  +  a
G|-------------------------------------|-------------------------------------|
D|-X-----------------------------------|-------------------------------------|
A|-------------------------------------|-------------------------------------|
E|-------------------------------------|-------------------------------------|


   1  e  +  a  2  e  +  a  3  e  +  a    1  e  +  a  2  e  +  a  3  e  +  a
G|-------------------------------------|-------------------------------------|
D|-------------------------------------|-------------------------------------|
A|-------------------------------------|-------------------------------------|
E|-------------------------------------|-------------------------------------|


   1  e  +  a  2  e  +  a  3  e  +  a    1  e  +  a  2  e  +  a  3  e  +  a
G|-------------------------------6-----|-4-----2-----------------------------|
D|-------------------------------------|-------------6-----4-----2-----------|
A|-4-----4-----4-----4-----4-----------|-------------------------------6-----|
E|-------------------------------------|-------------------------------------|


   1  e  +  a  2  e  +  a  3  e  +  a    1  e  +  a  2  e  +  a  3  e  +  a
G|-------------------------------------|-------------------------------------|
D|-------------------------------------|-------------------------------------|
A|-2-----------------0-----------------|-7-----------------6\\\\\\\\\\\0-----|
E|-------------------------------------|-------------------------------------|

  [Solo 4]
   1  e  +  a  2  e  +  a  3  e  +  a    1  e  +  a  2  e  +  a  3  e  +  a
G|-------------------------------------|-------------------------------------|
D|-------------------------------------|-------------------------2-----------|
A|-4-----4-----4-----4-----4-----------|-------------2-----4-----------2-----|
E|-------------------------------0-----|-2-----4-----------------------------|


   1  e  +  a  2  e  +  a  3  e  +  a    1  e  +  a  2  e  +  a  3  e  +  a
G|-------------------------------------|-------------------------------------|
D|-------------------------------------|-------------------------------------|
A|-4-----4-----4-----------4-----0-----|-0-----0-----------2-----2-----------|
E|-------------------------------------|-------------------------------------|


   1  e  +  a  2  e  +  a  3  e  +  a    1  e  +  a  2  e  +  a  3  e  +  a
G|-------------------------------6-----|-4-----2-----------------------------|
D|-------------------------------------|-------------6-----4-----2-----------|
A|-4-----4-----4-----4-----4-----------|-------------------------------6-----|
E|-------------------------------------|-------------------------------------|


   1  e  +  a  2  e  +  a  3  e  +  a    1  e  +  a  2  e  +  a  3  e  +  a
G|-------------------------------------|-------------------------------------|
D|-------------------------------------|-6-----------------4-----------------|
A|-2-----------------0-----------------|-------------------------------------|
E|-------------------------------------|-------------------------------------|

  [Solo 5]
   1  e  +  a  2  e  +  a  3  e  +  a    1  e  +  a  2  e  +  a  3  e  +  a
G|-------------------------------------|-------------------------------------|
D|-------------------------------------|-------------------------2-----------|
A|-4-----4-----4-----4-----4-----------|-------------2-----4-----------2-----|
E|-------------------------------0-----|-2-----4-----------------------------|


   1  e  +  a  2  e  +  a  3  e  +  a    1  e  +  a  2  e  +  a  3  e  +  a
G|-------------------------------------|-------------------------------------|
D|-------------------------------------|-------------------------------------|
A|-4-----------4-----4-----4-----0-----|-------0-----------2-----2-----------|
E|-------------------------------------|-------------------------------------|


   1  e  +  a  2  e  +  a  3  e  +  a    1  e  +  a  2  e  +  a  3  e  +  a
G|-------------------------------6-----|-4-----2-----------------------------|
D|-------------------------------------|-------------6-----4-----2-----------|
A|-4-----4-----4-----4-----4-----------|-------------------------------6-----|
E|-------------------------------------|-------------------------------------|


   1  e  +  a  2  e  +  a  3  e  +  a    1  e  +  a  2  e  +  a  3  e  +  a
G|-------------------------------------|-------------------------------------|
D|-------------------------------------|-------------------------------------|
A|-2-----------------0-----------------|-7-----------------6\\\\\\\\\\\0-----|
E|-------------------------------------|-------------------------------------|


   1  e  +  a  2  e  +  a  3  e  +  a    1  e  +  a  2  e  +  a  3  e  +  a
G|-------------------------------------|-------------------------------------|
D|-------------------------------------|-------------------------2-----------|
A|-4-----4-----4-----4-----4-----------|-------------2-----4-----------2-----|
E|-------------------------------0-----|-2-----4-----------------------------|


   1  e  +  a  2  e  +  a  3  e  +  a    1  e  +  a  2  e  +  a  3  e  +  a
G|-------------------------------------|-------------------------------------|
D|-------------------------------7-----|-7-----7-----------9-----9-----------|
A|-4-----4-----4-----4-----4-----------|-------------------------------------|
E|-------------------------------------|-------------------------------------|


   1  e  +  a  2  e  +  a  3  e  +  a    1  e  +  a  2  e  +  a  3  e  +  a
G|-------------------------------6-----|-4-----2-----------------------------|
D|-------------------------------------|-------------6-----4-----2-----------|
A|-4-----4-----4-----4-----4-----------|-------------------------------6-----|
E|-------------------------------------|-------------------------------------|


   1  e  +  a  2  e  +  a  3  e  +  a    1  e  +  a  2  e  +  a  3  e  +  a
G|-------------------------------------|-------------------------------------|
D|-------------------------------------|-------------------------------------|
A|-2-----------------0-----------------|-7-----------------6-----------0-----|
E|-------------------------------------|-------------------------------------|


   1  e  +  a  2  e  +  a  3  e  +  a    1  e  +  a  2  e  +  a  3  e  +  a
G|-------------------------------------|-------------------------------------|
D|-------------------------------------|-------------------------------------|
A|-------------------------------------|-0-----------------2-----------------|
E|-2-----------------4-----------------|-------------------------------------|

  [4/4 - Section 2]
   1  e  +  a  2  e  +  a  3  e  +  a  4  e  +  a    1  e  +  a  2  e  +  a  3  e  +  a  4  e  +  a
G|-------------------------------------------------|-------------------------------------------------|
D|-------------------------------------------------|-------------------------------------------------|
A|-------------------------------------------------|-------------------------------------7-----------|
E|-0-----------------------------------------------|-12----------------------------7--9-----9--7--9--|


   1  e  +  a  2  e  +  a  3  e  +  a  4  e  +  a    1  e  +  a  2  e  +  a  3  e  +  a  4  e  +  a
G|-------------------------------------------------|-------------------------------------------------|
D|-------------------------------------------------|-7-----------------------------------------------|
A|-------------------------------------------------|-------------------------------------------------|
E|-5-----------------------------------------5-----|-------------------------------------------7-----|


   1  e  +  a  2  e  +  a  3  e  +  a  4  e  +  a    1  e  +  a  2  e  +  a  3  e  +  a  4  e  +  a
G|-------------------------------------------------|-------------------------------------------------|
D|-------------------------------------------------|-------------------------------------------------|
A|-------------------------------------------------|-11----------------9-----------------7-----------|
E|-0-----------------------------------------0-----|-------------------------------------------------|


   1  e  +  a  2  e  +  a  3  e  +  a  4  e  +  a    1  e  +  a  2  e  +  a  3  e  +  a  4  e  +  a
G|-------------------------------------------------|-------------------------------------------------|
D|-------------------------------------------------|-------------------------------------------------|
A|-------------------------------------------------|-12----------------------------------7-----------|
E|-5-----------------------------------------7//12-|-------------------------------------------------|


   1  e  +  a  2  e  +  a  3  e  +  a  4  e  +  a    1   +   2   +   3   +   1   +   2   +   3   +
G|-------------------------------------------------|-------------------------------------------------|
D|-------------------------------------------------|-------------------------------------------------|
A|-4-----------------------------------------2--4--|-4-------------------------------2-------4-------|
E|-------------------------------------------------|---------0-------2-------4-----------------------|


   1  e  +  a  2  e  +  a  3  e  +  a  4  e  +  a    1  e  +  a  2  e  +  a  3  e  +  a  4  e  +  a
G|-------------------------------------------------|-------------------------------------------------|
D|-------------------------------------------------|-7-----6-----------------------6-----------------|
A|-0-----------------------------------------0-----|-------------9-----7-----9-----------7-----9-----|
E|-------------------------------------------------|-------------------------------------------------|

  [Outro]
   1  e  +  a  2  e  +  a  3  e  +  a  4  e  +  a
G|-------------------------------------------------|
D|-------------------------------------------------|
A|-------------------------------------------7--9--|
E|-7-----------------------------------------------|

   1     +     2     +     3     +     1     +     2     +     3     +        
G|-16----14----13----------------------14----13----11----------------------|
D|-------------------16----14-13-13----------------------14----13----11----|
A|-------------------------------------------------------------------------|
E|-------------------------------------------------------------------------|


   1  e  +  a  2  e  +  a  3  e  +  a  4  e  +  a    1  e  +  a  2  e  +  a  3  e  +  a  4  e  +  a
G|-------------------------------------------------|-------------------------------------------------|
D|-------------------------------------------------|-------------------------------------------------|
A|-0-----------------------------------------0-----|-12----------------------------------------0-----|
E|-------------------------------------------------|-------------------------------------------------|


   1  e  +  a  2  e  +  a  3  e  +  a  4  e  +  a    1  e  +  a  2  e  +  a  3  e  +  a  4  e  +  a
G|-------------------------------------------------|-------------------------------------------------|
D|-------------------------------------------------|-------------------------------------------------|
A|-------------------------------------------------|-------------------------------------------------|
E|-------------------------------------------------|-------------------------------------------------|


   1  e  +  a  2  e  +  a  3  e  +  a  4  e  +  a
G|-------------------------------------------------|
D|-------------------------------------------------|
A|-------------------------------------------------|
E|-------------------------------------------------|

***********************************
| /   Slide up
| \   Slide down
| X   Dead note
***********************************

            
            
Suggest correction
Creating personal tab
Creating personal tab
You can edit any tab online and save it as your Personal.

You can edit, replace or remove any tab part or add personal notes – all changes will be seen only by you.

Personal tabs can be accessed anytime from any device, even offline.
Learn more »
Give kudos to tab author, rate the tab!
1 2 3 4 5
comments
print report bad tab
guest
You may want to rate the tab now too:
select rating
Wanna post a correction for this tab? Suggest correction