Oops, an error
Loading. Please wait.

Space Ship One Tab

version 1
version 1

Intro

Whole song

Interactive

4,477 views 1 this week
1 commentread comment
1 2 3 4 5
excellent!
x 3
add to favorites
launch autoscroll
font size
0
reset
how to read this tab
guitar tuner
Autoscroll
slow
fast
+/-
esc
set tempo
stop
Help us to improve Ultimate-Guitar.com Take our survey!
×
Author
\\\ = trem
h = hammer on
p = pull off
^ = bend

hi this is my first tab
i couldnt find a decent non power/guitar pro tab anywhere on the internet.
i know the whole song and i'll tab it all at some point but at the moment i dont
have a guitar in hand so this is all i can remember. thx
e|-0-0-0-0---0-0-0-0---0-0---0-0---0-----0\\\\\\\\\
b|-0-0-0-0---0-0-0-0---0-0---0-0---0-----0\\\\\\\\\\
g|---------------------------------------2\\\\\\\\\\\
d|---------------------------------------3\\\\\\\\\\\\
a|---------------------------------------0\\\\\\\\\\\\\
E|-4-5-6-7---7-6-5-4---4-3---3-2---2-----1\\\\\\\\\\\\\\

e|4p0-0-4p0-0-4p0-0-4p0-0|5p0-0-5p0-0-5p0-0-5p0-0|7p4-4-7p4-4-7p4-4-7p4-4|
b|---0-----0-----0-----0-|---0-----0-----0-----0-|---5-----5-----5-----5-|
g|-----------------------|-----------------------|-----------------------|
d|-----------------------|-----------------------|-----------------------|
a|-----------------------|-----------------------|-----------------------|
E|-----------------------|-----------------------|-----------------------|

e|9p5-5-9p5-5-9p5-5-9p5-5|12p7-7-12p7-7-12p7-7-12p7-7|
b|---5-----5-----5-----5-|----9------9-----9-------9-|
g|-----------------------|---------------------------|
d|-----------------------|---------------------------|
a|-----------------------|---------------------------|
E|-----------------------|---------------------------|

e|12p9--9-12p9--9-12p9--9-12p9--9-|16p12--12-16p12--12-16p12--12-16p12--12-|
b|----10------10------10------10--|-----12--------12--------12--------12---|
g|--------------------------------|----------------------------------------|
d|--------------------------------|----------------------------------------|
a|--------------------------------|----------------------------------------|
E|--------------------------------|----------------------------------------|

e|17p12--12-17p12--12-17p12--12-17p12--12|
b|-----12--------12--------12--------12--|
g|---------------------------------------|
d|---------------------------------------|
a|---------------------------------------|
E|---------------------------------------|

e|19p16--16-19p16--16-19p16--16-19p16--16-19-19|
b|-----17--------17--------17--------17--------|
g|---------------------------------------------|
d|---------------------------------------------|
a|---------------------------------------------|
E|---------------------------------------------|

e|19p17--17-21p17--17-19p17--17-21p17--17-19p17--17-21p17--19^21|
b|-----17--------17--------17--------17--------17--------17-----|
g|--------------------------------------------------------------|
d|--------------------------------------------------------------|
a|--------------------------------------------------------------|
E|--------------------------------------------------------------|
Suggest correction
Give kudos to tab author, rate the tab!
1 2 3 4 5
comments
print report bad tab
1 comment total.
0 reply
Infinite401 72 wrote on January 30 2008, 08:48 pm

nice tab...and thank you i used this as a base for my tab of the whole song. just trying to figure out one part...the end of the solo.

if you know it its greatly appreciated if you could tell me how to do it, im trying to learn it for a concert.

guest
You may want to rate the tab now too:
select rating
Please do not post tabs as comments. Select "correction" instead!