Oops, an error
Loading. Please wait.

Space Ship One Tab

version 1
version 1

Whole song

Interactive

13,813 views 12 this week
12 commentsread comments
1 2 3 4 5
accurate
x 4
add to favorites
launch autoscroll
font size
0
reset
how to read this tab
guitar tuner
Tab Pro tools
  • play this tab
  • loop segment
  • change instrument
  • show fretboard
  • metronome
×
Best way to learn
"Space Ship One"
Autoscroll
slow
fast
+/-
esc
set tempo
stop
Contributor
Difficulty
advanced
Intro:
e|-0-0-0-0---0-0-0-0---0-0---0-0---0-----0-|
b|-0-0-0-0---0-0-0-0---0-0---0-0---0-----0-|
g|---------------------------------------2-|
d|---------------------------------------3-| Pick Scrape all the way down and
a|---------------------------------------0-|  strum this chord repeatedly
E|-4-5-6-7---7-6-5-4---4-3---3-2---2-----1-|

e|4p0-0-4p0-0-4p0-0-4p0-0|5p0-0-5p0-0-5p0-0-5p0-0|7p4-4-7p4-4-7p4-4-7p4-4|
b|---0-----0-----0-----0-|---2-----2-----2-----2-|---5-----5-----5-----5-|
g|-----------------------|-----------------------|-----------------------|
d|-----------------------|-----------------------|-----------------------|
a|-----------------------|-----------------------|-----------------------|
E|-----------------------|-----------------------|-----------------------|

e|9p5-5-9p5-5-9p5-5-9p5-5|12p7-7-12p7-7-12p7-7-12p7-7|
b|---5-----5-----5-----5-|----9------9-----9-------9-|
g|-----------------------|---------------------------|
d|-----------------------|---------------------------|
a|-----------------------|---------------------------|
E|-----------------------|---------------------------|

e|12p9--9-12p9--9-12p9--9-12p9--9-|16p12--12-16p12--12-16p12--12-16p12--12-|
b|----10------10------10------10--|-----12--------12--------12--------12---|
g|--------------------------------|----------------------------------------|
d|--------------------------------|----------------------------------------|
a|--------------------------------|----------------------------------------|
E|--------------------------------|----------------------------------------|

e|17p12--12-17p12--12-17p12--12-17p12--12|
b|-----14--------14--------14--------14--|
g|---------------------------------------|
d|---------------------------------------|
a|---------------------------------------|
E|---------------------------------------|

e|19p16--16-19p16--16-19p16--16-19p16--16-19-19|
b|-----17--------17--------17--------17--------|
g|---------------------------------------------|
d|---------------------------------------------|
a|---------------------------------------------|
E|---------------------------------------------|

e|19p17--17-21p17--17-19p17--17-21p17--17-19p17--17-21p17--19^21|
b|-----17--------17--------17--------17--------17--------17-----|
g|--------------------------------------------------------------|
d|--------------------------------------------------------------|
a|--------------------------------------------------------------|
E|--------------------------------------------------------------|

Main Riff:
e|------------------------------------------------------------------------|
B|------------------------------------------------------------------------|
G|------------------------------------------------------------------------|
D|--9-9--9-9--9--9--9---9--9---9--9---------------------------------------| X4
A|--9-9--9-9--9--9--9---9--9---9--9---------------------------------------|
E|--7-7--7-7--7--7--7---7--7---7--7---------------------------------------|
        PM PM   PM     PM     PM

Verse:
e|-------------------------------------------------------------------|
B|-------------------------------------------------------------------|
G|-------------------------------------------------------------------|
D|---9-9-9-9-9-9-9-9-9-9-9-9-9-9-9-9-9-9-9-9-9-9-9-9-9-9-9-9-9-------| X2
A|---9-9-9-9-9-9-9-9-9-9-9-9-9-9-9-9-9-9-9-9-9-9-9-9-9-9-9-9-9-------|
E|---7-7-7-7-7-7-7-7-7-7-7-7-7-7-7-7-7-7-7-7-7-7-7-7-7-7-7-7-7-------|
    |---------------------PM-----------------------------------------|  PM  PM

Pre-Chorus:
e|-------------------------------------------------------------------------|
B|-------------------------------------------------------------------------|
G|-------------------------------------------------------------------------|
D|--9-9-9-9-9-9-9-9---9-9--9--9-9--9--9-9----------------------------------|
A|--9-9-9-9-9-9-9-9---9-9--9--9-9--9--9-9----------------------------------|
E|--7-7-7-7-7-7-7-7---7-7--7--7-7--7--7-7----------------------------------|
   |------PM-------|      PM-----------------------------------------------|      PM


e|---------------------------------------------------------------------------|
B|---------------------------5----------------------4------------------------|
G|------------------------6-----6----------------4-----4---------------------|
D|--9-9-9--8-8-8--6-----6----------6-----------4---------4-----4-4-4--44-4-4-|
A|--9-9-9--8-8-8--6-------------------4--------------------2---4-4-4--44-4-4-|
E|--7-7-7--6-6-6--4---4--------------------2-2-----------------2-2-2--22-2-2-|
                     |-------------------PM----------------------------------|

Chorus
e|----------------------------------------------------------------------|
B|-----------------------------2--2--5--5--2---5--5--2------------------|
G|--2--2--2-2------------------4--4--4--4--4---4--4--4------------------|
D|--2--2--2-2--2--2-2--2-2-2---4--4--4--4--4---4--4--4--x-x-------------|
A|--0--0--0-0--2--2-2--2-2-2---2--2--2--2--2---2--2--2--x-x-------------|
E|-------------0--0-0--0-0-0----------------------------x-x-------------|

e|-----------------------------7p4-4-7p4-4-9p5-5-9p5-5-7p4-4-7p4-4-7B--|
B|--------------------------------5-----5-----5-----5-----5-----5------|
G|--2--2--2-2----------------------------------------------------------|
D|--2--2--2-2--2--2-2--2-2-2-------------------------------------------|
A|--0--0--0-0--2--2-2--2-2-2-------------------------------------------|
E|-------------0--0-0--0-0-0-------------------------------------------|


Verse:
e|-------------------------------------------------------------------|
B|-------------------------------------------------------------------|
G|-------------------------------------------------------------------|
D|---9-9-9-9-9-9-9-9-9-9-9-9-9-9-9-9-9-9-9-9-9-9-9-9-9-9-9-9-9-------| X2
A|---9-9-9-9-9-9-9-9-9-9-9-9-9-9-9-9-9-9-9-9-9-9-9-9-9-9-9-9-9-------|
E|---7-7-7-7-7-7-7-7-7-7-7-7-7-7-7-7-7-7-7-7-7-7-7-7-7-7-7-7-7-------|
    |---------------------PM-----------------------------------------|  PM  PM

Pre-Chorus:
e|-------------------------------------------------------------------------|
B|-------------------------------------------------------------------------|
G|-------------------------------------------------------------------------|
D|--9-9-9-9-9-9-9-9---9-9--9--9-9--9--9-9----------------------------------|
A|--9-9-9-9-9-9-9-9---9-9--9--9-9--9--9-9----------------------------------|
E|--7-7-7-7-7-7-7-7---7-7--7--7-7--7--7-7----------------------------------|
   |------PM-------|      PM-----------------------------------------------|      PM


e|---------------------------------------------------------------------------|
B|---------------------------5----------------------4------------------------|
G|------------------------6-----6----------------4-----4---------------------|
D|--9-9-9--8-8-8--6-----6----------6-----------4---------4-----4-4-4--44-4-4-|
A|--9-9-9--8-8-8--6-------------------4--------------------2---4-4-4--44-4-4-|
E|--7-7-7--6-6-6--4---4--------------------2-2-----------------2-2-2--22-2-2-|
                     |-------------------PM----------------------------------|

Chorus
e|----------------------------------------------------------------------|
B|-----------------------------2--2--5--5--2---5--5--2------------------|
G|--2--2--2-2------------------4--4--4--4--4---4--4--4------------------|
D|--2--2--2-2--2--2-2--2-2-2---4--4--4--4--4---4--4--4--x-x-------------|
A|--0--0--0-0--2--2-2--2-2-2---2--2--2--2--2---2--2--2--x-x-------------|
E|-------------0--0-0--0-0-0----------------------------x-x-------------|

e|-----------------------------7p4-4-7p4-4-9p5-5-9p5-5-7p4-4-7p4-4---|
B|--------------------------------5-----5-----5-----5-----5-----5----|
G|--2--2--2-2--------------------------------------------------------|
D|--2--2--2-2--2--2-2--2-2-2-----------------------------------------|
A|--0--0--0-0--2--2-2--2-2-2-----------------------------------------|
E|-------------0--0-0--0-0-0-----------------------------------------|

e|19p17--17-19p17--17-21p17--17-21p17--17-19p17--17-19p17--19^21|
b|-----17--------17--------17--------17--------17--------17-----|
g|--------------------------------------------------------------|
d|--------------------------------------------------------------|
a|--------------------------------------------------------------|
E|--------------------------------------------------------------|

Solo: (quite a bit of fun i might add)
e|4p0-0-4p0-0-4p0-0-4p0-0|5p0-0-5p0-0-5p0-0-5p0-0|7p4-4-7p4-4-7p4-4-7p4-4|
b|---0-----0-----0-----0-|---2-----2-----2-----2-|---5-----5-----5-----5-|
g|-----------------------|-----------------------|-----------------------|
d|-----------------------|-----------------------|-----------------------|
a|-----------------------|-----------------------|-----------------------|
E|-----------------------|-----------------------|-----------------------|

e|9p5-5-9p5-5-9p5-5-9p5-5|12p7-7-12p7-7-12p7-7-12p7-7|
b|---5-----5-----5-----5-|----9------9-----9-------9-|
g|-----------------------|---------------------------|
d|-----------------------|---------------------------|
a|-----------------------|---------------------------|
E|-----------------------|---------------------------|

e|12p9--9-12p9--9-12p9--9-12p9--9-|16p12--12-16p12--12-16p12--12-16p12--12-|
b|----10------10------10------10--|-----12--------12--------12--------12---|
g|--------------------------------|----------------------------------------|
d|--------------------------------|----------------------------------------|
a|--------------------------------|----------------------------------------|
E|--------------------------------|----------------------------------------|

e|17p12--12-17p12--12-17p12--12-17p12--12|
b|-----14--------14--------14--------14--|
g|---------------------------------------|
d|---------------------------------------|
a|---------------------------------------|
E|---------------------------------------|

e|19p16--16-19p16--16-19p16--16-19p16--16-19-19|
b|-----17--------17--------17--------17--------|
g|---------------------------------------------|
d|---------------------------------------------|
a|---------------------------------------------|
E|---------------------------------------------|

e|19p17--17-21p17--17-19p17--17-21p17--17-19p17--17-21p17--19^21|
b|-----17--------17--------17--------17--------17--------17-----|
g|--------------------------------------------------------------|
d|--------------------------------------------------------------|
a|--------------------------------------------------------------|
E|--------------------------------------------------------------|


e|---------------------------------------------------------------------|
B|-------------5p4------------|    |-----------------------------------|
G|-------4h6p4----6p4-4-6b9---| X2 |-------------------4h6p4-----------|
D|----4h6-----6------6--------|    |----------------4h6-----6----------|
A|-----------------------------------------2h4p2-4h6-------------------|
E|--------------------------------------2h4-----4----------------------|

e|-------------------------12p11-----------------------------|
B|--------------12h14p12--------14p12---12h14b16-------------|
G|--------11h13---------13------------13---------------------| Repeat that
D|---11h13---------------------------------------------------| entire section
A|-----------------------------------------------------------| [X2]
E|-----------------------------------------------------------|

e|------------------------------------------------------------------|
B|--------------10p9---------------|    |---------------------------|
G|------9h11p9------11p9--9h11b13--| X2 |------------------9h11p9---|
D|--9h11------11--------11---------|    |--------------9h11------11-|
A|-------------------------------------------7h9p7-9h11-------------|
E|----------------------------------------7h9-----9-----------------|

e|----------------------17p16---------------------------------------|
B|------------17h19p17-------19p17--17h19b21------------------------|
G|-------16h18--------18----------18--------------------------------|
D|--16h18-----------------------------------------------------------|
A|------------------------------------------------------------------|
E|------------------------------------------------------------------|

e|-----------------------------------------------------------------|
B|-----------------17p16-----------------|    |--------------------|
G|-------16h18p16-------18p16--16h18b20--| X2 |--------------------|
D|--16h18--------18----------18----------|    |--------------------|
A|-----------------------------------------------------------------|
E|-----------------------------------------------------------------|

e|------------------------------------------------------------------|
B|----17p16-17p16---------------------------------------------------|
G|---------------18p16-18p16----------------------------------------|
D|--------------------------18p16-18p16-----------------------------|
A|-------------------------------------18p16-18p16------------------|
E|------------------------------------------------18p16-18p16\-/----|

e|-14-16-18-18b19-18-16-14-16-18-14---------------------14-16-18-19-19-19b22-|
B|----------------------------------14--17b19r17-17--17----------------------|
G|---------------------------------------------------------------------------|
D|---------------------------------------------------------------------------|
A|---------------------------------------------------------------------------|
E|---------------------------------------------------------------------------|

ok so, this part is...oddly easier than it sounds... but still confusing. Im actually
positive how to do it exactly myself but this is somewhat on the right line. Ive seen Paul
it and it looks a little something like this. Ant suggestions on how to do this better 
GREATLY appreciated. Enjoy

                PH            PH            PH
e|--------------7p4-----------7p4-----------7p4--------------------|
B|-4h5p4h7p4h5p4---5p4h7p4h5p4---5p4h7p4h5p4---5p4-7p5p4-----------|
G|--------------------------------------------------------4--------| X3
D|--------------------------------------------------------4--------|
A|--------------------------------------------------------2--------|
E|-----------------------------------------------------------------|
                                              PH
e|-----------15----14-----------------------------------------------|
B|-----15----------------17----15----14-15-14-15--------------------|
G|--12----12----12----12----12----12--------------------------------|
D|------------------------------------------------------------------|
A|------------------------------------------------------------------|
E|------------------------------------------------------------------|

            PH            PH            PH
e|--------------7p4-----------7p4-----------7p4--------------------|
B|-4h5p4h7p4h5p4---5p4h7p4h5p4---5p4h7p4h5p4---5p4-7p5p4-----------|
G|-----------------------------------------------------------------| X3
D|-----------------------------------------------------------------|
A|-----------------------------------------------------------------|
E|-----------------------------------------------------------------|
                AH
e|-----------------------------------------------------------------|
B|-----------------------------------------------------------------|
G|--4--6-----8--9--------------------------------------------------|
D|--4--6--6--8--9--------------------------------------------------|
A|--2--4--6--6--9--------------------------------------------------|
E|--------4--------------------------------------------------------|


Alright so now, thats the main part of the song, and the rest is made up of previous
of the song and shouldnt be hard to figure out. I hope this helped anyone trying to figure
song out really even though i know its not a popular song. Yeah questions, comments, 
or anything is greatly appreciated, contact me at:

Instant Message: Survivalism101
Email: Scr3wthisigiveup@aim.com/survivalism101@aim.com
comments
print report bad tab
12 comments total. Showing first comments.
0 reply
guitarboyluke wrote on February 13 2008, 03:13 pm

very well done lad.
paul would be proud!

0 reply
Infinite401 wrote on February 13 2008, 03:59 pm

thank you very much sir

0 reply
guitarboyluke wrote on February 16 2008, 02:31 pm

its alright lad.
do u have any idea how mr.spock goes?
its my fav song on the album and i cant find any tabs 4 it

I want to post or [tab]
guest
You may want to rate the tab now too:
select rating
Please do not post tabs as comments. Select "correction" instead!