Oops, an error
Loading. Please wait.

String Skipping Tab

version 1
version 1

Solo

Whole song

Interactive

5,002 views 3 this week
no commentswrite comment
1 2 3 4 5
3 more votes to show rating
add to favorites
launch autoscroll
font size
0
reset
how to read this tab
guitar tuner
Autoscroll
slow
fast
+/-
esc
set tempo
stop
Help us to improve Ultimate-Guitar.com Take our survey!
×
Author
In the video Technical Difficulties, posted by Imitationnigger,
Gilbert plays this cool string skipping pattern during the bridge
(right before solo build up). I have posted a video playing this, 
http://www.youtube.com/watch?v=VPcbI7bGX2I - Chris93rock
Its only the first lick, the other one you should be able to figure out,
if youre good enough to play the first one :)


Every first note of the string is picked, all the others are hammer ons or pull offs.
                | - - Play this section two times - - |

e|---------------10-12-14-12-10-----------------------------------------|
B|----------------------------------------------------------------------|
G|-----11-12-14-----------------14-12-11--------------------------------|
D|--12-----------------------------------12-----------------------------|
A|----------------------------------------------------------------------|
E|----------------------------------------------------------------------|

                                     t                 t     tap slide
e|--------------10-12-14-12-10-12-14-17-14-12-10-12-14-17-14-17-14-12-10----------------------|
B|-----------------------------------------------------------------------14-12-11-------------|
G|-----11-12-14-------------------------------------------------------------------14-12-11----|
D|--12--------------------------------------------------------------------------------------12|
A|--------------------------------------------------------------------------------------------|
E|--------------------------------------------------------------------------------------------|
Suggest correction
Give kudos to tab author, rate the tab!
1 2 3 4 5
comments
print report bad tab
guest
You may want to rate the tab now too:
select rating
Wanna post a correction for this tab? Suggest correction