Oops, an error
Loading. Please wait.

String Skipping Tab

version 1
version 1

Whole song

Interactive

1,710 views 3 this week
no commentswrite comment
1 2 3 4 5
3 more votes to show rating
add to favorites
launch autoscroll
font size
0
reset
how to read this tab
guitar tuner
Autoscroll
slow
fast
+/-
esc
set tempo
stop
Help us to improve Ultimate-Guitar.com Take our survey!
×
Author
Difficulty
advanced
ok so heres the arpeggio i learnt off PG.

E|-15p12------------12-15p12-------|    you can move it around and make some
B|---------------------------------|    pretty cool sounding stuff.
G|------16p12--12-16--------16p12--|
D|-----------14------------------14| 
A|---------------------------------| 
E|---------------------------------|


E|----------9h12h14p12p9----------|     once youve mastered the first 
B|--------------------------------|     arpeggio you can then try this
G|---9h11h14------------14p11p9---|     one.
D|--------------------------------|
A|-12--------------------------12-|
E|--------------------------------|

E|----------9h12h14h17p14p12p9----------| then once that one is mastered you
B|--------------------------------------| can then try adding in a right 
G|---9h11h14------------------14p11p9---| hand hammer on.
D|--------------------------------------|
A|-12--------------------------------12-|
E|--------------------------------------|
Suggest correction
Give kudos to tab author, rate the tab!
1 2 3 4 5
comments
print report bad tab
guest
You may want to rate the tab now too:
select rating
Wanna post a correction for this tab? Suggest correction