Oops, an error
Loading. Please wait.

Suite Modale Tab

1,090 views 1 this week
1 commentread comment
1 2 3 4 5
please rate
add to favorites
launch autoscroll
font size
0
reset
how to read this tab
guitar tuner
Tab Pro tools
  • play this tab
  • loop segment
  • change instrument
  • show fretboard
  • metronome
Autoscroll
slow
fast
+/-
esc
set tempo
stop
Contributor
Difficulty
intermediate
Title: Suite Modale
SubTitle: Ernest Bloch - Performed by Paul Gilbert
Artist: Tabulated by Fabio Cavaliere - fabio.cavaliere@gmail.com
Album: Silence followed by a deafening roar
Tabber: Fabio Cavaliere
Tempo = 110
Electric Guitar

Legend
L - tied note
x - dead note
h - hammer on/pull off
b - bend
s - slide
~ - vibrato
g - ghost note
> - accentuated note
t - trill
M - palm mute
. - staccato
P - popping (bass)
S - slapping (bass)
+ - tapping
W - wide vibrato
< - fade in
w - whammy bar
= - tremolo picking
v - brush up
^ - brush down
V - pick stroke up
n - pick stroke down


E |-------|-----------------------17L--|--17~--|----------------------------|
B |-------|-----------------15-17------|-------|--17-15---------------------|
G |-------|-----14-16-14-16------------|-------|--------16-14-16-14---------|
D |--14~--|--15------------------------|-------|--------------------15-14L--|
A |-------|----------------------------|-------|----------------------------|
E |-------|----------------------------|-------|----------------------------|


-------|-----------------15-17s22L--|--22~--|--17------------------------|
-------|-----15-17-15-17------------|-------|-----17s15------------------|
-------|--14------------------------|-------|-----------14-16------------|
--14~--|----------------------------|-------|-----------------15-14------|
-------|----------------------------|-------|-----------------------17---|
-------|----------------------------|-------|----------------------------|


----------------------------|-----------------17L17~-----|
--------14-15-14s18L18------|--14-15-17-18-17------------|
--14-16---------------------|----------------------------|
----------------------------|----------------------------|
----------------------------|----------------------------|
----------------------------|----------------------------|


-----------15----------20---|--19-17---------------------|
-----15s17----18-17-15~-----|--------20-18---------------|
--14------------------------|--------------19-16L16~-----|
----------------------------|----------------------------|
----------------------------|----------------------------|
----------------------------|----------------------------|


----------------------------|-------|--17-19-20-20~---20-19-17---|
-----------17---------------|-------|----------------------------|
--17-19-17----19-17-16s14L--|--14---|----------------------------|
----------------------------|-------|----------------------------|
----------------------------|-------|----------------------------|
----------------------------|-------|----------------------------|


-----17-19----20-22-24-24L--|--24-24-22-20----20-22------|
--20------------------------|--------------24-------3----|
----------------------------|----------------------------|
----------------------------|----------------------------|
----------------------------|----------------------------|
----------------------------|----------------------------|


-----------------3-----5----|--3-------------------------|
--5--6L-6~----5-----6-------|-----6--5--3-----3--5--6----|
----------------------------|--------------5-------------|
----------------------------|----------------------------|
----------------------------|----------------------------|
----------------------------|----------------------------|


----------------------------|----------------------------|
--5--3----------------------|-----------------------15L--|
--------5--3--2--3----------|-----14L14----15-17-15------|
--------------------5-------|----------------------------|
----------------------------|----------------------------|
----------------------------|----------------------------|


----------------------------|----------------------------|-------|
--15------------------------|----------------------------|-------|
-----17-15-14M---14L---14---|--15-17-15-14s12s10-12s7L---|--7~---|
----------------------------|----------------------------|-------|
----------------------------|----------------------------|-------|
----------------------------|----------------------------|-------|


--17L---17-15-17L---17-15---|-----15---------------------|
----------------------------|--18----18-15-15~17L17~-----|
----------------------------|----------------------------|
----------------------------|----------------------------|
----------------------------|----------------------------|
----------------------------|----------------------------|


----------------------------|----------------------------|
--18L---18-17-18L---18-17---|--15-17-15----------15------|
----------------------------|-----------14-16-17---------|
----------------------------|----------------------------|
----------------------------|----------------------------|
----------------------------|----------------------------|


----------------------------|----------------------------|
--17-15---------------------|--15------------------------|
--------17-16-14-16-17------|-----17-16-14---------------|
----------------------------|--------------17------------|
----------------------------|----------------------------|
----------------------------|----------------------------|


----------------------------|----------------------------|--15~17~--|
----------------------------|----------------------------|----------|
--14-16-14-17-16-14---------|-----14---------------------|----------|
--------------------17-15---|--17----15-17L17~-----------|----------|
----------------------------|----------------------------|----------|
----------------------------|----------------------------|----------|


--15~-----------------------|----------------------------|
--------17~-----------------|----------------------------|
--------------17~---16-14---|--16L---------16-14s12s14L--|
----------------------------|----------------------------|
----------------------------|----------------------------|
----------------------------|----------------------------|


--------------------15-17---|-----17-22-22b---22-20-19L--|
-----------------18---------|--18------------------------|
--14~---------17------------|----------------------------|
----------------------------|----------------------------|
----------------------------|----------------------------|
----------------------------|----------------------------|


--19~---------20----22~-----|--20-19---------------------|
-----------------22---------|--------22L---------22------|
----------------------------|----------------------------|
----------------------------|----------------------------|
----------------------------|----------------------------|
----------------------------|----------------------------|


--19----20----19----19L-----|--19~--|----------------------------|
-----------------22---------|-------|----------------------------|
----------------------------|-------|--14s16-17-19L19~17-16------|
----------------------------|-------|-----------------------19---|
----------------------------|-------|----------------------------|
----------------------------|-------|----------------------------|


----------------------------|----------------------------|
--------------------17-18L--|--18~17---------------------|
--------16L16~17-19---------|--------19-17-16-17-19------|
--17-19---------------------|-----------------------14---|
----------------------------|----------------------------|
----------------------------|----------------------------|


--24L24~---22-24L---24~22---|--20-22-20------------------|
----------------------------|-----------22-24~-----------|
----------------------------|----------------------------|
----------------------------|----------------------------|
----------------------------|----------------------------|
----------------------------|----------------------------|


--20L20~---19-20L20~---19---|--17-19-17s13-15-17-15-12---|
----------------------------|----------------------------|
----------------------------|----------------------------|
----------------------------|----------------------------|
----------------------------|----------------------------|
----------------------------|----------------------------|


--13-15-13------------------|--12------------------------|
-----------15-12-13-15~-----|-----15-13-12----12-13~-----|
----------------------------|--------------14------------|
----------------------------|----------------------------|
----------------------------|----------------------------|
----------------------------|----------------------------|


----------------------------|--------------------5-------|
--15-13-12----12~-----------|--5L----5~-6--8--6----------|
-----------14---------------|----------------------------|
----------------------------|----------------------------|
----------------------------|----------------------------|
----------------------------|----------------------------|


----------------------------||
--8--6--5L----------5-------||
----------------------------||
----------------------------||
----------------------------||
----------------------------||
comments
We did not receive enough feedback on this tab! Please rate:
print report bad tab
1 2 3 4 5
1 comment total.
0 reply
PapaKooLay wrote on November 16 2011, 10:13 pm

Good tab...missing a few notes sometimes such as after the first piano break:

----------------------------|-------|--17-19-20-20~---20-19-17---|
-----------17---------------|-------|----------------------------|
--17-19-17----19-17-16s14L--|--14---|----------------------------|
----------------------------|-------|----------------------------|
----------------------------|-------|----------------------------|
----------------------------|-------|----------------------------|


when it should have the D (22)

----------------------------|-------|--17-19-20-(22~)!---20-19-17---|
-----------17---------------|-------|----------------------------|
--17-19-17----19-17-16s14L--|--14---|----------------------------|
----------------------------|-------|----------------------------|
----------------------------|-------|----------------------------|
----------------------------|-------|----------------------------|


THANKS :D

I want to post or [tab]
guest
You may want to rate the tab now too:
select rating
Please do not post tabs as comments. Select "correction" instead!