Oops, an error
Loading. Please wait.

The Gargoyle Bass Tab

version 1
version 1

Whole song

Interactive

562 views 1 this week
no commentswrite comment
1 2 3 4 5
please rate
add to favorites
launch autoscroll
font size
0
reset
guitar tuner
Tab Pro tools
  • play this tab
  • loop segment
  • change instrument
  • show fretboard
  • metronome
×
Best way to learn
"The Gargoyle"
Autoscroll
slow
fast
+/-
esc
set tempo
stop
Contributor
Difficulty
intermediate
A)Intro
     H        H             
G||---------------------|---------------------------|
D||o-9--------12--------|----5-----7-----9---------o| x3
A||o-7--------10--------|--3-3-3-5-5-5-7-7---------o|
E||--0------------------|---------------------------|
  H        H           S S S S S S S S E  E   Q      
--------------------|-------------------------------|
--9--------5--------|----5-----7-----9--------------|
--7--------3--------|--3-3-3-5-5-5-7-7--------------|
--0-----------------|---------------------0--12\----|

B) Main Riff
x16    x8 x4 x4    x16   x16   x16   x16   x16   x16
-----|-----------|-----|-----|-----|-----|-----|-----|
-----|-----------|-----|-----|-----|-----|-----|-----| x2
-----|-----7--5--|--3--|--3--|--0--|--2--|-----|-----|
--0--|--0--------|-----|-----|-----|-----|--0--|--0--|

C)Arpeggio Section
x16    x16   x16   x16   x16   x16   x16   x8 x8
-----|-----|-----|-----|-----|-----|-----|--------|
-----|-----|-----|-----|-----|-----|-----|--------|
--6--|-----|-----|-----|-----|-----|-----|--------|
-----|--8--|--7--|--4--|--3--|--1--|--3--|--4--6--|

D)
x16    x16   x16   x16   x16   x16   x16 
-----|-----|-----|-----|-----|-----|-----|
-----|-----|-----|-----|-----|-----|-----|
--6--|-----|-----|-----|-----|-----|--3--|
-----|--8--|--7--|--4--|--3--|--0--|-----|

E)
x16
-----|
-----|x4
--2--|
-----|

F)Tremolo Part
  W     W     W     W     W     W     W
-----|-----|-----|-----|-----|-----|-----|
o----|--9--|--7--|--7--|--5--|--5--|--5--|
o----|--7--|--5--|--5--|--3--|--3--|--3--|
--0--|-----|-----|-----|-----|-----|-----|

   |-3-|  |-3-|  |-3-| |-3-| |-3-| |-3-| |-3-| |-3-|  
------------------------------------------------------|
--10-9-7---------------------------------5-----------o|
---------10-9-7-10-9-7-6-----------6-7-8---9-7-6-7-9-o|
-------------------------8-7-5-7-8--------------------|

G)
  H  H     H  H
--------|--------|
--------|--------|
--------|--------|
--0--1--|--2--3--|

H) Solo 1 Part 1
  E  S S E  S S S S S S S S S S     E  S S E  S S S S S S S S S S    
------------------------5--------|--------------------------------|
---------7----5---7---------5-7--|---------7----5---2-------------|
--0--0-0----0---0---0-0---0------|--0--0-0----0---0---0-0-5-0-3-5-|
---------------------------------|--------------------------------|
  E  S S S S S S E  E  E  S  S  
-------------------------------|
-------------------------------|
--0--0-0-3-0-0-0-0--0--3-------|
--------------------------3h-5-|
 x8
-----|
-----|x5
--0--|
-----|

I) Solo 1 Part 2
  E  E  E  E  E  E  E  E 
--------------------------|
--------------------------|
--2--2--2--2--2--2--2--0--|
--------------------------|
  E  E  E  E  S S S S S S S S    S S S S S S Q  E  E  E    x8    x8
--------------4-2-------------|--------------------------|-----|-----|
------------------5-4-2-------|--------------------------|-----|-----|
--2--2--2--2------------5-4-2-|--0-2-x-5-x-0-2--2--2--2--|--2--|--2--|
------------------------------|--------------------------|-----|-----|
  E  E  E  E  E  E  E  E     S S S S S S S S S S S S S S S S    S S S S S S S S H    
--------------------------|--------------------------------2-|------4-----5-----4-|
--------------------------|--------1-----2-----4-----5-------|--------------------|
--2--------2--2--2--2--2--|--2-2-2---2-2---2-2---2-2---2-2---|--2-2---2-2---2-2---|
-----2--3-----------------|----------------------------------|--------------------|

J)Main Riff Variation
x16    x8 x4 x4    x16   x16    S   S  S  S  S S  S  S  S  S  S  S  S  S  S  S 
-----|-----------|-----|-----|-------------------------------------------------|
-----|-----------|-----|-----|-------------------------------------------------|
-----|-----7--5--|--3--|--3--|--3s-10-10-10-12-9-10-12-14-10-12-14-15-14-12-10-|
--0--|--0--------|-----|-----|-------------------------------------------------|
 x16   x16   x16    S S S S S S S S E  E   Q    
-----|-----|-----|-------------------------------|
-----|-----|-----|-------------------------------|
--0--|--2--|-----|-------------------------------|
-----|-----|--0--|--0-0-0-0-0-0-0-0-0--0--12\----|

K)Solo 2 Part 1
 x16   x8  x4 x4   x16   x12 x4   x16   x16   x16   x16
-----|-----------|-----|--------|-----|-----|-----|-----|
-----|-----------|-----|--------|-----|-----|-----|-----|
-----|-----10--8-|--6--|--6--5--|--3--|--5--|--0--|--0--|
--3--|--3--------|-----|--------|-----|-----|-----|-----|

L)Arpeggio Section
x16    x16   x16   x16   x16   x16   x16   x8 x8
-----|-----|-----|-----|-----|-----|-----|--------|
-----|-----|-----|-----|-----|-----|-----|--------|
--6--|-----|-----|-----|-----|-----|-----|--------|
-----|--8--|--7--|--4--|--3--|--1--|--3--|--4--6--|

M)
x16    x16   x16   x16   x16   x16   x16 
-----|-----|-----|-----|-----|-----|-----|
-----|-----|-----|-----|-----|-----|-----|
--6--|-----|-----|-----|-----|-----|--3--|
-----|--8--|--7--|--4--|--3--|--0--|-----|

N)
x16
-----|
-----|x4
--2--|
-----|

O)Tremolo Part
  W     W     W     W     W     W     W
-----|-----|-----|-----|-----|-----|-----|
o----|--9--|--7--|--7--|--5--|--5--|--5--|
o----|--7--|--5--|--5--|--3--|--3--|--3--|
--0--|-----|-----|-----|-----|-----|-----|

   |-3-|  |-3-|  |-3-| |-3-| |-3-| |-3-| |-3-| |-3-|  
------------------------------------------------------|
--10-9-7---------------------------------5-----------o|
---------10-9-7-10-9-7-6-----------6-7-8---9-7-6-7-9-o|
-------------------------8-7-5-7-8--------------------|

P)Intro Repeat
|---------------------|---------------------------|
|o-9--------12--------|----5-----7-----9---------o| x3
|o-7--------10--------|--3-3-3-5-5-5-7-7---------o|
|--0------------------|---------------------------|
  H        H           S S S S S S S S H      
--------------------|--------------------|
--9--------5--------|----5-----7-----9---|
--7--------3--------|--3-3-3-5-5-5-7-7-x-|
--0-----------------|--------------------|

Q)Batio Lick
 .E
-----|
-----| Rest
--0--|
-----|

R)Outro Lick
  H .E     S Q Q E     E E.Q S    .E Q Q      Q Q 
--------|-----------|-----------|----------|-------||
--------|-----------|-----------|----------|-------|| Rest
--------|-----------|-----------|----------|-------||
--0--3--|--L-L-5-L--|--L-6-L-7--|--L-L-10--|--L-0--||
comments
We did not receive enough feedback on this tab! Please rate:
print report bad tab
1 2 3 4 5
I want to post or [tab]
guest
You may want to rate the tab now too:
select rating
Please do not post tabs as comments. Select "correction" instead!