Oops, an error
Loading. Please wait.

Whole Lotta Sonata Tab

version 1
version 1

Whole song

Interactive

2,387 views 1 this week
no commentswrite comment
1 2 3 4 5
please rate
add to favorites
launch autoscroll
font size
0
reset
how to read this tab
guitar tuner
Autoscroll
slow
fast
+/-
esc
set tempo
stop
Help us to improve Ultimate-Guitar.com Take our survey!
×
#----------------------------------PLEASE NOTE--------------------------------#
#This file is the author's own work and represents their interpretation of the#
#song. You may only use this file for private study, scholarship, or research.#
#-----------------------------------------------------------------------------#
#-- File created with Instab - http://www.pconline.com/~smcarey/instab.html --#
#-----------------------------------------------------------------------------#

Author/Artist: Paul Gilbert
Title: Whole Lotta Sonata
Album: Alligator Farm
Transcribed by: Greg Suing
Email: gsuing@yahoo.com

This is Paul Gilbert's version of Mozart's Piano Sonata in C, which Gilbert
plays it in B flat.

This is about the first minute of the song, top voice only. The vertical bars
denote logical sections not measures.

-10-11-13----------11-10----|-10-11-13-------11-11-10----|-11-11-13-10-10-15--|
----------11-13-13-------13-|----------11-13----------13-|--------------------|
----------------------------|----------------------------|--------------------|
----------------------------|----------------------------|--------------------|
----------------------------|----------------------------|--------------------|
----------------------------|----------------------------|--------------------|


-17-18-13-13-|-13-11-11----11-10-10----------10----------------|--------------|
-------------|----------13----------11-12-13----13-11-10-------|--------------|
-------------|-------------------------------------------12-10-|--------------|
-------------|-------------------------------------------------|--------------|
-------------|-------------------------------------------------|--------------|
-------------|-------------------------------------------------|--------------|


-10-11-13----------11-10----|-10-11-13-------11-11-10----|-11-11-13-10-10-15--|
----------11-13-13-------13-|----------11-13----------13-|--------------------|
----------------------------|----------------------------|--------------------|
----------------------------|----------------------------|--------------------|
----------------------------|----------------------------|--------------------|
----------------------------|----------------------------|--------------------|


-17-18-13-13-14-15-------------|-------------------18-17-15----------|--------|
-------------------16-13-------|-------15----18-15----------18-16-15-|--------|
-------------------------15-14-|-15-------15-------------------------|-16-17--|
-------------------------------|----15-------------------------------|--------|
-------------------------------|-------------------------------------|--------|
-------------------------------|-------------------------------------|--------|


----15-------------------------|-------------------18-17-15----------|--------|
-16----16----18-15----16-------|-------15----18-15----------18-16-15-|-16-17--|
----------17-------15----17-14-|-15-------15-------------------------|--------|
-------------------------------|----15-------------------------------|--------|
-------------------------------|-------------------------------------|--------|
-------------------------------|-------------------------------------|--------|


----15----------------------------------|-------------------------------------|
-16----16----18-15----16----------------|-------------------------------------|
----------17-------15----17-14-15-------|-------------------------------------|
----------------------------------15----|-------------------------------------|
-------------------------------------13-|-------------------------------------|
----------------------------------------|-------------------------------------|


---------------------------------------------------------------------|--------|
-15-15-16-15----15-18-16-15--------------------------18-16-15*16-----|--------|
-------------17-------------17-15-14--15-16-17-18-19-------------17--|--------|
---------------------------------------------------------------------|--------|
---------------------------------------------------------------------|--------|
---------------------------------------------------------------------|--------|


-------------------------------------------------------15-17-18-20-22-23-21---|
-16-16-18-16----16-20-18-16-15----------------15-16-18------------------------|
-------------19----------------17-15-14-15-17---------------------------------|
------------------------------------------------------------------------------|
------------------------------------------------------------------------------|
------------------------------------------------------------------------------|


-22-|-------18-22-18----18-------|-------17-20-17----17-------|---------------|
----|----20----------20----20----|----18----------18----18----|---------------|
----|-19----------------------19-|-17----------------------17-|---------------|
----|----------------------------|----------------------------|---------------|
----|----------------------------|----------------------------|---------------|
----|----------------------------|----------------------------|---------------|


-------18-------------17-------------|-------------------------------------|--|
----20----20-------18----18----20----|-18-17-15----------------13----------|--|
-17----------17-17----------17----17-|----------17-17-15-14-12----15-13-14-|--|
-------------------------------------|-------------------------------------|--|
-------------------------------------|-------------------------------------|--|
-------------------------------------|-------------------------------------|--|


----------------------------------|----------------------15-14-15-17-18-18----|
-18-17-15----------------13-------|-15-14-15-17-18-18-18----------------------|
----------17-17-15-14-12----15-14-|-------------------------------------------|
----------------------------------|-------------------------------------------|
----------------------------------|-------------------------------------------|
----------------------------------|-------------------------------------------|


-18-|-18-17-18-20-22-22-22-20-18-17----20-18-17-|----------------------15-14--|
----|-------------------------------20----------|-15-14-15-17-18-18-18--------|
----|-------------------------------------------|-----------------------------|
----|-------------------------------------------|-----------------------------|
----|-------------------------------------------|-----------------------------|
----|-------------------------------------------|-----------------------------|


-15-17-18-18-18-|-18-17-18-20-22-22-22-20-18-17-17----------20-|-17-----------|
----------------|----------------------------------20-18-17----|----18-17-20--|
----------------|----------------------------------------------|--------------|
----------------|----------------------------------------------|--------------|
----------------|----------------------------------------------|--------------|
----------------|----------------------------------------------|--------------|


-------17---------------------------------------------------------------------|
----18-------20-17------------------------------------------------------------|
-17-------17-------17---------------------------------------------------------|
------------------------------------------------------------------------------|
------------------------------------------------------------------------------|
------------------------------------------------------------------------------|
                      time for bed... more later.
Suggest correction
What's this?
You can suggest a correction to this tab. Community and Mods will review your correction and vote to approve or reject it.
comments
We did not receive enough feedback on this tab! Please rate:
print report bad tab
1 2 3 4 5
guest
You may want to rate the tab now too:
select rating
Please do not post tabs as comments. Select "correction" instead!