Oops, an error
Loading. Please wait.

You Kids Tab

version 1
version 1

Solo

Whole song

Interactive

1,373 views 1 this week
no commentswrite comment
1 2 3 4 5
x 3
add to favorites
launch autoscroll
font size
0
reset
how to read this tab
guitar tuner
Autoscroll
slow
fast
+/-
esc
set tempo
stop
Help us to improve Ultimate-Guitar.com Take our survey!
×
artist:           PAUL GILBERT
song:             YOU KIDS SOLO
album:          GET OUT OF MY YARD
tuning:            E-A-D-G-B-E

I said i would have the solo sometime soon so here it is
the solo for YOU KIDS hope you all enjoy.

                                      Zakkrhoads69@yahoo.com


16-12-14-16-14-12-----12----------------------------------|
-----------------15-14---15-14-12-15-12-14-15-14-12-------|
----------------------------------------------------14-13-|
----------------------------------------------------------|
----------------------------------------------------------|
----------------------------------------------------------|

---------------------------------------------------------|
12-------------------------------------------------------|
---14-13-11-14-11-13-14-13-11-----11---------------------|
-----------------------------14-12--14-12-11-14-11-12-14-|
---------------------------------------------------------|
---------------------------------------------------------|

--------------------------------------16-19-16-17-19-17-16-|
--------------------------2/-15-17-19----------------------|
-----------------------------------------------------------|
12-11------12----------------------------------------------|
-----14-12----14-12-11-------------------------------------|
-----------------------12----------------------------------|

14-16-17-16-14------------------12-16-12-14-16-14-12-10-12-|
--------------17-15-14-12-14-15----------------------------|
-----------------------------------------------------------|
-----------------------------------------------------------|
-----------------------------------------------------------|
-----------------------------------------------------------|

14-12-10----------------9-11-12-11-9----------------------|
--------14-12-10-9-10-12-------------12-10-9----15^-------|
---------------------------------------------9--14^-------|
----------------------------------------------------------|
----------------------------------------------------------|
----------------------------------------------------------|

---------------------------------------------------------|
17/--00002222555577779999121212121414141417171717--------|
---------------------------------------------------------|
---------------------------------------------------------|
---------------------------------------------------------|
---------------------------------------------------------|

12-14-12---12-14-12--12--14^-14^-14^------12-------------|
---------14--------14----------------5/-12--12-9-0-9-12--|
---------------------------------------------------------|
---------------------------------------------------------|
---------------------------------------------------------|
---------------------------------------------------------|


12------------13--------------13-------------14-----------|
--12-9-0-9-12---13-10-0-10-13---13-10-0-10-13--14-11-0-11-|
----------------------------------------------------------|
----------------------------------------------------------|
----------------------------------------------------------|
----------------------------------------------------------|

--14--------------15--------------15--------------16------|
14--14-11-0-11-14---15-12-0-12-15----15-12-0-12-15--16-13-|
----------------------------------------------------------|
----------------------------------------------------------|
----------------------------------------------------------|
----------------------------------------------------------|

----17----------18----------19-----------19^19^19^19^19^-|
0-13--17-14-0-14--18-15-0-15--19-16-0-16-----------------|
---------------------------------------------------------|
---------------------------------------------------------|
---------------------------------------------------------|
---------------------------------------------------------|
Suggest correction
Give kudos to tab author, rate the tab!
1 2 3 4 5
comments
print report bad tab
guest
You may want to rate the tab now too:
select rating
Wanna post a correction for this tab? Suggest correction