Oops, an error
Loading. Please wait.

You Kids Tab

version 1
version 1

Whole song

Interactive

3,230 views 1 this week
1 commentread comment
1 2 3 4 5
excellent!
x 5
add to favorites
launch autoscroll
font size
0
reset
how to read this tab
guitar tuner
Tab Pro tools
  • play this tab
  • loop segment
  • change instrument
  • show fretboard
  • metronome
×
Best way to learn
"You Kids"
Autoscroll
slow
fast
+/-
esc
set tempo
stop
               PAUL GILBERT

  song:          YOU KIDS
  album:     GET OUT OF MY YARD

------------------------------------------------------------------|
------------------------------------------------------------------|
--------6^----------11^--------6^---------------------------------|
-------------8--9-----------------------------9-------------------|
--6--7-------6--7--------6--7------8--9/------7-------------------|
--4--5-------------------4--5------6--7/--0-0---0-0---------------|

------------------------------------------------------------------|
------------------------------------------------------------------|
--------6^----------11^--------6^---------------------------------|
-------------8--9-----------------------------9-----7-----4-----7-|
--6--7-------6--7--------6--7------8--9/------7-----5-----2-----5-|
--4--5-------------------4--5------6--7/--0-0---0-0---0-0---0-0---|

------------------------------------------------------------------|
------------------------------------------------------------------|
-----------------------------4------------------------------------|
-----4-4-------------4/6/4---2---4/6/4-4--------------------------|
-----2-2-------------2/4/2-------2/4/2-2---------4/6-----4-2------|
-0-0-----0-0-0-0-0-0-------0---0---------0-0-0-0-2/4-0-0----4-2-0-|

------------------------------------------------------------------|
------------------------------------------------------------------|
---------------------------------4--------------------------------|
---------4-4-------------4/6/4---2---4/6/4-4----------------------|
---------2-2-------------2/4/2-------2/4/2-2---------4/6-----4-2--|
-0-0-2-4-----0-0-0-0-0-0-------0---0---------0-0-0-0-2/4-0-0------|

-------------------------------------------------------------------|
-------------------------------------------------------------------|
---------------------4---4/6/4-------------------------------------|
-------------4/6/4---2---2/4/2---4---4/6/4---4-4-------------------|
-------------2/4/2---------------2---2/4/2---2-2--------4/6--4-2---|
4-2-0-0-2-4-------0---0-------0---0-------0-----0-0-0-0-2/4--------|


------------------------------------------------------------------|
------------------------------------------------------------------|
---------------------4---4/6/4------------------------------------|
-------------4/6/4---2---2/4/2---4---4/6/4---4-4------------------|
-------------2/4/2---------------2---2/4/2---2-2--------4/6--4-2--|
4-2-0-0-2-4-------0---0-------0---0-------0-----0-0-0-0-2/4-------|

------------------------------------------------------------------|
------------------------------------------------------------------|
-------------------0-0-0-0-0-0-0-0-0-0-0-0----------0-0-0-0-0-0-0-|
------------------------------------------------------------------|
-------------6-6/7--------------------------6-6-6/7---------------|
4-2-0-0-2-4--4-4/5--------------------------4-4-4/5---------------|

------------------------------------------------------------------|
------------------------------------------------------------------|
0-0-0-0-0------------4---4/6/4----------------------4---4/6/4-----|
-------------4/6/4---2---2/4/2---4---4/6/4---4/6/4--2---2/4/2---4-|
-------------2/4/2---------------2---2/4/2---2/4/2--------------2-|
-----------0-------0---0-------0---0-------0-------0--0-------0---|

-------------------------------------------------------------------|
-------------------------------------------------------------------|
-----------------0-0-0-0-0-0-0-0-0-0-0-0---------0-0-0-0-0-0-0-0-0-|
--4/6/4------------------------------------------------------------|
--2/4/2----6-6/7-------------------------6-6-6/7-------------------|
0-------0--4-4/5-------------------------4-4-4/5-------------------|

------------------------------------------------------------------|
------------------------------------------------------------------|
0-0-0-------------------------------------------------------------|
--------7---7---7-7-7---7---7---7-7-7---7-7-7---7-7-7---7-7-7-7-7-|
--------5---5---5-5-5---5---5---5-5-5---5-5-5---5-5-5---5-5-5-5-5-|
------5---5---5-------5---5---5-------5-------5-------5-----------|

------------------------------------------------------------------|
------------------------------------------------------------------|
--------6^----------11^--------6^---------------------------------|
-------------8--9-----------------------------9-------------------|
--6--7-------6--7--------6--7------8--9/------7-------------------|
--4--5-------------------4--5------6--7/--0-0---0-0---------------|

------------------------------------------------------------------|
------------------------------------------------------------------|
--------6^----------11^--------6^---------------------------------|
-------------8--9-----------------------------9-----7-----4-----7-|
--6--7-------6--7--------6--7------8--9/------7-----5-----2-----5-|
--4--5-------------------4--5------6--7/--0-0---0-0---0-0---0-0---|

------------------10-10-10---9-------------------------------------|
----9---10---12----------------12-10---9-10-12--------------10-8-5-|
------9----9----9----------9--9--9--9---------9-9-12-14-9----7-5-4-|
-------------------------------------------------------------------|
-------------------------------------------------------------------|
0-0----------------------------------------------------------------|

------------------10-10-10---9-------------------------------------|
----9---10---12----------------12-10---9-10-12--------------10-8-5-|
------9----9----9----------9--9--9--9---------9-9-12-14-9----7-5-4-|
-------------------------------------------------------------------|
-------------------------------------------------------------------|
-------------------------------------------------------------------|

--------------10-10-10---9--------------------------------13-13-13-|
9---10---12------------------12---10----10----12----13-------------|
--9----9----9----------9---9----9----9-----10----10----10----------|
-------------------------------------------------------------------|
-------------------------------------------------------------------|
-------------------------------------------------------------------|

---12----10------------------------------------------15--15---1517-|
---------------13---15--15--151715--15--15--151715-15--15--15------|
12----12----12----12--12--12------12--12--12-----------------------|
-------------------------------------------------------------------|
-------------------------------------------------------------------|
-------------------------------------------------------------------|

17---15-15-15-15-15------------------------------------------------|
--15-15-15-15-15-15------------------------------------------------|
---------------------12------12---------------------12------12-----|
-----------------------1412----1412-------------------1412----1412-|
---------------------------14------14------10---12-14-----14-------|
--------------------------------------10-12--12-10-12--------------|

--------------------------------------------------------------------|
--------------------------------------------------------------------|
---------------------12------12-------------------------------------|
-----------------------1412----1412---------------------------------|
14-------10----14-12-------14------14-------10----12-14-------14-12-|
---10-12----12-12-10------------------10-12----12-10-12-0-0-0-12-10-|

-------------------------------------------------------------------|
-------------------------------------------------------------------|
-----------------12------12-------------------------12------12-----|
-----14-12-14-12---1412----1412-----------------------1412----1412-|
-----12-10-12-10-------12------14-------10----12-14-------12-------|
0-0-0-----------------------------10-12----12-10-12----------------|


------------------------------------------------------------------|
------------------------------------------------------------------|
---------------------12------12-----------------------------------|
-----------------------1412----1412-------------------------------|
14-------10----14-12-------14------14-------10----12-14-------14--|
---10-12----12-12-10------------------10-12----12-10-12-0-0-0-12--|

-------------------------------------------------------------------|
-------------------------------------------------------------------|
-------------------------------------------------------------------|
------------------5-5---------5---7-7---------7--5-5---------5---7-|
------14-15-16-17-3-3---------3---5-5-----7---5--3-3---------3---5-|
0-0-0-12-13-14-15-----0-2-3-5---0-----5-7---7--0-----0-2-3-5---0---|

-------------------------------------------------------------------|
-------------------------------------------------------------------|
-------------------------------------------------------------------|
7-7--7-7-7---5-5---------5---7-7---------7---5-5---------5---7-7-7-|
5-5--5-5-5---3-3---------3---5-5-----7---5---3-3---------3---5-5-5-|
----0------0-----0-2-3-5---0-----5-7---7---0-----0-2-3-5---0-------|

-------------------10-10-10---9-------------------------------13--|
----/9---10---12------------------12---10---10----12----13--------|
-------9----9----9----------9---9----9----9----10----10----10-----|
6-5---------------------------------------------------------------|
4-3---------------------------------------------------------------|
------------------------------------------------------------------|

13-13----12----10-------------------------------------------15--15-|
---------------------13----15--15--151715--15--15--151715-----15---|
------12----12----12----12---12--12------12--12--12------12--------|
-------------------------------------------------------------------|
-------------------------------------------------------------------|
-------------------------------------------------------------------|

--15--15---15-15-15-15-15-----------------------------------------|
15--15--15-15-15-15-15-15-----------------------------------------|
------------------------------------------------------------------|
------------------------------------------------------------------|
------------------------------------------------------------------|
------------------------------------------------------------------|

Then after that is the solo which I do not have yet but I will soon.
The rest of the song after the solo pretty much just repeats its self.
comments
print report bad tab
1 comment total.
0 reply
Metal_Militian wrote on June 1 2008, 01:27 pm

Thank You!!!! you're my hero! i've loved this song forever.
great tab. 5 stars straight away. One thing i would say is that the layout is a bid bad, it's set out in way that makes it harder to read.
but thanks all the same

I want to post or [tab]
guest
You may want to rate the tab now too:
select rating
Please do not post tabs as comments. Select "correction" instead!