Oops, an error
Loading. Please wait.

Dumb Things Bass Tab

61 views 3 this week
no commentswrite comment
1 2 3 4 5
3 more votes to show rating
add to favorites
launch autoscroll
font size
0
reset
guitar tuner
Autoscroll
slow
fast
+/-
esc
set tempo
stop
Help us to improve Ultimate-Guitar.com Take our survey!
×
Author
About this tab version
There weren't many tabs on this, the song is played in a triplet shuffle feel. Was this info helpful? Yes No
[Intro] 11"
G|--------------|
D|--------------|
A|--0--3-----5--|
E|--------3-----|

[Intro + Verse 1] 13"
G|--------------|--------------|--------------|--------------|
D|--------------|--------------|--------------|--------------|
A|--0--0--------|-0--0---------|-0--0---------|-0--3-----5---| 
E|------0-0-3-0-|-----0-0-3-0--|-----0-0-3-0--|-------3------| x3

[Chorus] 31"

G|--------------|--------------|--------------|--------------|--------------|--------------|-------------|
D|--------------|-----0--------|--------------|---3------5---|--------------|--------------|-------------|
A|--------0--2--|--3-----3--2--|--------------|--------------|---0---0------|------3-------|---------5---|
E|--1--3--------|--------------|--0--0--3--0--|--------------|---------0--0-|1---1---------|---3---------|

[Verse 2] 42"
G|--------------|--------------|--------------|--------------|
D|--------------|--------------|--------------|--------------|
A|--0--0--------|-0--0---------|-0--0---------|-0--3-----5---| 
E|------0-0-3-0-|-----0-0-3-0--|-----0-0-3-0--|-------3------| x3

[Chorus] 1'01"

G|--------------|--------------|--------------|--------------|--------------|--------------|-------------|
D|--------------|-----0--------|--------------|---3------5---|--------------|--------------|-------------|
A|--------0--2--|--3-----3--2--|--------------|--------------|---0---0------|------3-------|---------5---|
E|--1--3--------|--------------|--0--0--3--0--|--------------|---------0--0-|1---1---------|---3---------|

[Straight after the second chorus] 1'11"

G|--------------|--------------|-------------|
D|--------------|--------------|-------------|
A|---0---0------|------3-------|---------5---|
E|---------0--0-|1---1---------|---3---------|

[Solo] 1'21"


G|--------------|--------------|--------------|--------------|--------------|--------------|-------------|
D|--------------|-----0--------|--------------|---3------5---|--------------|--------------|-------------|
A|--------0--2--|--3-----3--2--|--------------|--------------|---0---0------|------3-------|---------5---|
E|--1--3--------|--------------|--0--0--3--0--|--------------|---------0--0-|1---1---------|---3---------|



[Bridge] 1'44" 

G|--------------|--------------|--------------|--------------|
D|--------------|--------------|--------------|--------------|
A|--0--0--------|-0--0---------|-0--0---------|-0--3-----5---| 
E|------0-0-3-0-|-----0-0-3-0--|-----0-0-3-0--|-------3------| x2

[Chorus] 1'57"

G|--------------|--------------|--------------|--------------|--------------|--------------|-------------|
D|--------------|-----0--------|--------------|---3------5---|--------------|--------------|-------------|
A|--------0--2--|--3-----3--2--|--------------|--------------|---0---0------|------3-------|---------5---|
E|--1--3--------|--------------|--0--0--3--0--|--------------|---------0--0-|1---1---------|---3---------|


[Straight after second chorus] 2'08"

G|--------------|--------------|--------------|-------------|
D|--------------|--------------|--------------|-------------|
A|--0--0--------|--0---0-------|------3-------|---------5---|
E|------0-0-3-0-|--------0--0--|1---1---------|---3---------|


[Outro] 2'31"
G|--------------|
D|--------------|
A|-0--3-----5---|
E|-------3------|



















Suggest correction
Give kudos to tab author, rate the tab!
1 2 3 4 5
comments
print report bad tab
guest
You may want to rate the tab now too:
select rating
Wanna post a correction for this tab? Suggest correction