Oops, an error
Loading. Please wait.

Leaps And Bounds bass

2,264 views 3 this week
2 commentsread comments
1 2 3 4 5
x 3
add to favorites
×
Save as Personal and add changes to this tab that will be seen only by you. Learn more ›
×
You can save this tab as Personal to edit and correct it or add notes. All changes will be seen only by you. Learn more »
launch autoscroll
font size
0
reset
guitar tuner
edit
Autoscroll
slow
fast
+/-
esc
set tempo
stop
I hate seeing this at the top of a tab cos usually it means it sucks but anyway 
my first tab. Easy song. Basically riff 1 is repeated through most of the song except for when 
can't hear it. haha. Thats when you start playing route notes to what the guitar is playing.


Riff 1 (starts at 13 seconds and [below] should take 7.5 seconds to play.)
G|-------------------6-4----------------------6-4-|
D|--------6-4---2-2----------------6-4---2-2------|
A|--2-2----------------------2-2------------------|
E|------------------------------------------------|

Riff 2

      B                 E             B                 E
I go leaps and bounds           I go leaps and bounds

G|--------------------------------|
D|-----------2------------------2-|
A|-2---------------------2--------|
E|--------------------------------|


Riff 3
G#             F#         E
Down past the river and across the playing fields

G#             F#         E
The fields all empty only for the burning leaves


G|--------------------------------|
D|-6------------4---------2-------|
A|--------------------------------|
E|--------------------------------|

G|--------------------------------|
D|-6------------4---------2-------|
A|--------------------------------|
E|--------------------------------|

After Riff 2 and Riff 3 are played Riff 1 starts up again.

Perfect tab i hope. Enjoy

            
            
Suggest correction
Creating personal tab
Creating personal tab
You can edit any tab online and save it as your Personal.

You can edit, replace or remove any tab part or add personal notes – all changes will be seen only by you.

Personal tabs can be accessed anytime from any device, even offline.
Learn more »
Give kudos to tab author, rate the tab!
1 2 3 4 5
comments
print report bad tab
2 comments total.
0 reply
Bassin Hodgey 41 Nov 03, 2008 12:02 AM

Not too bad mate, riff 1 sounds pretty good but i think ur missing a bit more to it. 3 stars.

0 reply
tbate54 10 Jan 31, 2014 01:50 PM

Nice man. Pretty close.

guest
You may want to rate the tab now too:
select rating
Wanna post a correction for this tab? Suggest correction