Oops, an error
Loading. Please wait.

3 Legs bass

190 views 9 this week
no commentswrite comment
1 2 3 4 5
3 more votes to show rating
add to favorites
×
Save as Personal and add changes to this tab that will be seen only by you. Learn more ›
×
You can save this tab as Personal to edit and correct it or add notes. All changes will be seen only by you. Learn more »
launch autoscroll
font size
0
reset
guitar tuner
edit
Autoscroll
slow
fast
+/-
esc
set tempo
stop
Author
Difficulty
Verse 1 :
G|---------------------------------|---------------------------------|
D|---------------------------------|--------4-------7-------7--------|
A|--------4-------7-------7---\----|5--------------------------------|
E|5--------------------------------|---------------------------------|

G|---------------------------------|---------------------------------|
D|------------------------4--------|---------------------------------|
A|--------4-------7----------------|--------4-------7----------------|
E|5--------------------------------|5-----------------------8--------|

G|---------------------------------|---------------------------------|
D|--------4-------7-------7h9-7----|--------4-------7-------4--------|
A|5--------------------------------|5--------------------------------|
E|---------------------------------|---------------------------------|

G|---------------------------------|---------------------------------|
D|---------------------------------|---------------------------------|
A|--------4-------7---/---9-----0--|0-------4-------7---\---4--------|
E|5--------------------------------|---------------------------------|

G|---------------------------------|---------------------------------|
D|--------6-------9-------6-----9--|---------------------------------|
A|7--------------------------------|7--------------------------------|
E|---------------------------------|---------------------------------|

G|---------------------------------|---------------------------------|
D|---------------------------------|---------------------------------|
A|--------4-------5-------6--------|7---\----------------------------|
E|5--------------------------------|---------------------------------|

Chorus :
G|---------------------------------|------------------------5------7-|
D|7-------7-------7-------7--------|7-------7-------7----------------|
A|---------------------------------|---------------------------------|
E|---------------------------------|---------------------------------|

G|------------------------5------7-|------------------------5------7-|
D|7-------7-------7----------------|7-------7-------7----------------|
A|---------------------------------|---------------------------------|
E|---------------------------------|---------------------------------|

G|------------------------5------7-|------------------------5------7-|
D|7-------7-------7----------------|7-------7-------7----------------|
A|---------------------------------|---------------------------------|
E|---------------------------------|---------------------------------|

G|---------------------------------|
D|7--------------------------------|
A|---------------------------------|
E|---------------------------------|

Interlude :
G|---------------------------------|---------------------------------|
D|7-------7-------7-------7--------|7-------5-------4----------------|
A|---------------------------------|------------------------7--------|
E|---------------------------------|---------------------------------|

Verse 2 :
G|---------------------------------|---------------------------------|
D|--------4-------7-------4------7-|--------4-------7-------4--------|
A|5--------------------------------|5--------------------------------|
E|---------------------------------|---------------------------------|

G|---------------------------------|---------------------------------|
D|------------------------4------7-|---------------------------------|
A|--------4-------7----------------|--------4-------7----------------|
E|5--------------------------------|5-----------------------8--------|

G|---------------------------------|---------------------------------|
D|--------4-------7-------4------7-|--------4-------7-------4--------|
A|5--------------------------------|5--------------------------------|
E|---------------------------------|---------------------------------|

G|---------------------------------|---------------------------------|
D|7-----------------------4------7-|------------------------4--------|
A|--------4-------7----------------|--------4-------7--------------5-|
E|---------------------------------|5--------------------------------|

G|---------------------------------|---------------------------------|
D|--------6-------9-------6-----9--|---------------------------------|
A|7--------------------------------|7--------------------------------|
E|---------------------------------|---------------------------------|

G|---------------------------------|---------------------------------|
D|---------------------------------|---------------------------------|
A|--------4-------5-------6--------|7---\----------------------------|
E|5--------------------------------|---------------------------------|

Chorus :
G|---------------------------------|---------------------------------|
D|7-------7-------7-------7--------|7-------7-------7-------7--------|
A|---------------------------------|---------------------------------|
E|---------------------------------|---------------------------------|

G|---------------------------------|---------------------------------|
D|7-------7-------7-------7--------|7-------7-------7-------7--------|
A|---------------------------------|---------------------------------|
E|---------------------------------|---------------------------------|

G|---------------------------------|---------------------------------|
D|7-------7-------7-------7--------|7-------7-------7-------7--------|
A|---------------------------------|---------------------------------|
E|---------------------------------|---------------------------------|

G|---------------------------------|
D|7--------------------------------|
A|---------------------------------|
E|---------------------------------|

Interlude :
G|---------------------------------|---------------------------------|
D|7-------7-------7-------7--------|7-------5-------4----------------|
A|-------------------------------5-|------------------------7--------|
E|---------------------------------|---------------------------------|

Verse 3 :
G|---------------------------------|---------------------------------|
D|--------4-------7-------4--------|--------4-------7-------4------7-|
A|5--------------------------------|5--------------------------------|
E|---------------------------------|---------------------------------|

G|---------------------------------|---------------------------------|
D|------------------------4------7-|---------------------------------|
A|--------4-------7----------------|--------4-------7----------------|
E|5--------------------------------|5-----------------------8--------|

G|---------------------------------|---------------------------------|
D|--------4-------7-------4--------|--------4-------7-------4--------|
A|5--------------------------------|5--------------------------------|
E|---------------------------------|---------------------------------|

G|---------------------------------|---------------------------------|
D|------------------------4------7-|---------------------------------|
A|--------4-------7----------------|--------4-------7-------4--------|
E|5--------------------------------|5--------------------------------|

G|---------------------------------|---------------------------------|
D|---------------------------------|---------------------------------|
A|7-------7-------7-------7--------|7-------7-------5-------5--------|
E|--------------7----------------7-|---------------------------------|

G|---------------|---------------------------------|
D|---------------|---------------------------------|* 3 bars instead of 8
A|5-------5------|5--------------------------------|
E|---------------|---------------------------------|

G|---------------------------------|---------------------------------|
D|7--------------------------------|---------------------------------|
A|--------4-------5-------6--------|7--------------------------------|
E|---------------------------------|---------------------------------|

Chorus :
G|---------------------------------|---------------------------------|
D|7-----7-7-----7-7-----7-7------7-|7-----7-7-----7-7-----7-7------7-|
A|---------------------------------|---------------------------------|
E|---------------------------------|---------------------------------|

G|---------------------------------|---------------------------------|
D|7-----7-7-----7-7-----7-7------7-|7-----7-7-----7-7-----7-7------7-|
A|---------------------------------|---------------------------------|
E|---------------------------------|---------------------------------|

G|---------------------------------|---------------------------------|
D|7-----7-7-----7-7-----7-7------7-|7-----7-7-----7-7-----7-7--------|
A|---------------------------------|---------------------------------|
E|---------------------------------|---------------------------------|

G|---------------------------------|
D|7--------------------------------|
A|---------------------------------|
E|---------------------------------|

Outro : (tempo change)
G|---------------------------------|---------------------------------|
D|7-----7---------7-7---7----------|7-----7---------7-7---7----------|
A|--------7---------------7--------|--------7---------------7--------|
E|----------------------------8----|----------------------------8----|

G|---------------------------------|------7--------------------------|
D|7-----7---------7-7---7----------|--------7-------7-7-7-7-7-7-5-6--|
A|--------7---------------7---8----|5-----------5--------------------|
E|---------------------------------|---------------------------------|

G|---------------------------------|------7--------------------------|
D|7-----7---------7-7---7----------|--------7-------7-7-7-7-7-7-5-6--|
A|--------7---------------7---8----|5-----------5--------------------|
E|---------------------------------|---------------------------------|

G|---------------------------------|----7----------------------------|
D|7-----7---------7-7---7----------|----------------7----------------|
A|--------7---------------7---4----|5-------0---5--------------------|
E|---------------------------------|---------------------------------|

G|---------------------------------|---------------------------------|
D|---------------------------------|---------------------------------|
A|---------------------------------|----1---0------------------------|
E|---------------------------------|---------------------------------|

            
            
Suggest correction
Creating personal tab
Creating personal tab
You can edit any tab online and save it as your Personal.

You can edit, replace or remove any tab part or add personal notes – all changes will be seen only by you.

Personal tabs can be accessed anytime from any device, even offline.
Learn more »
Give kudos to tab author, rate the tab!
1 2 3 4 5
comments
print report bad tab
guest
You may want to rate the tab now too:
select rating
Wanna post a correction for this tab? Suggest correction