Oops, an error
Loading. Please wait.

A Love For You Bass Tab

7 views 1 this week
no commentswrite comment
1 2 3 4 5
3 more votes to show rating
add to favorites
launch autoscroll
font size
0
reset
guitar tuner
Autoscroll
slow
fast
+/-
esc
set tempo
stop
Help us to improve Ultimate-Guitar.com Take our survey!
×
Author
Difficulty
[Verse 1] 00:15
G|---------------------------------|---------------------------------|
D|---------------------------------|---------------------------------|
A|5---------------0---0---2---3----|----3----------------------------|
E|--------2---2--------------------|--------0---0---3---3---5---5----|

G|---------------------------------|---------------------------------|
D|---------------------------------|---------------------------------|
A|--------2-------5-----------5----|----5----------------------------|
E|3---3---------------7---5--------|--------2---2---3---3---4---4----|

G|---------------------------------|---------------------------------|
D|---------------------------------|---------------------------------|
A|5---5-----------0-------0---3----|----3----------------------------|
E|--------2------------------------|--------0---0---3---3---5---5----|

G|---------------------------------|---------------------------------|
D|---------------------------------|---------------------------------|
A|--------2-------5-----------5----|----5----------------------------|
E|3---3---------------7---5--------|--------2---2---3---3---4---4----|

G|---------------------------------|---------------------------------|
D|---------------------------------|---------------------------------|
A|5---------------0---0---2---3----|----3----------------------------|
E|--------2---2--------------------|--------0---0---3---3---5---5----|

G|---------------------------------|---------------------------------|
D|---------------------------------|---------------------------------|
A|--------2-------5-----------5----|----5----------------------------|
E|3---3---------------7---5--------|--------2---2---3---3---4---4----|

G|---------------------------------|---------------------------------|
D|---------------------------------|---------------------------------|
A|5---------------0---0---2---3----|----3----------------------------|
E|--------2------------------------|--------0---0---3---3---5---5----|

G|---------------------------------|---------------------------------|
D|---------------------------------|---------------------------------|
A|--------2-------5-----------5----|----5---5------------------------|
E|3---3---------------7---5--------|---------------------------------|

G|---------------------------------|
D|---------------------------------|
A|5--------------------------------|
E|---------------------------------|


[Chorus]
G|---------------------------------|---------------------------------|
D|---------------------------------|---------------------------------|
A|--------5---2---0---2---4---5----|----4-----------0---0---2---5----|
E|3--------------------------------|--------2---2--------------------|

G|---------------------------------|---------------------------------|
D|---------------------------------|---------------------------------|
A|--------0---2---4---1---4---2----|----2-----------2----------------|
E|3--------------------------------|--------2---2-----------3---4----|

G|---------------------------------|---------------------------------|
D|---------------------------------|---------------------------------|
A|----------------------------4----|5---5-------5-----------5---6----|
E|5-------5---5---5---5------------|---------------------------------|

G|---------------------------------|---------------------------------|
D|---------------------------------|---------------------------------|
A|7---7-------7---7---7-------7----|7---7-----------7---7---7--------|
E|---------------------------------|---------------------------------|

G|---------------------------------|---------------------------------|
D|---------------------------------|---------------------------------|
A|--------5---2---0---2---4---5----|----4-----------0---0---2---5----|
E|3--------------------------------|--------2---2--------------------|

G|---------------------------------|---------------------------------|
D|---------------------------------|---------------------------------|
A|--------0---1---2---0---1---2----|----2-----------2----------------|
E|3--------------------------------|--------2---2-----------3---4----|

G|---------------------------------|---------------------------------|
D|---------------------------------|---------------------------------|
A|---------------------------------|---------------------------------|
E|5---5-------5---5---5-------5----|5---5-------5---5-------5---7----|

G|---------------------------------|---------------------------------|
D|---------------------------------|---------------------------------|
A|5---5-------5---5----------------|5---5-------5---5---4------------|
E|---------------------------------|------------------------2---4----|


[Interlude]
G|---------------------------------|---------------------------------|
D|---------------------------------|---------------------------------|
A|---------------------------------|---------------------------------|
E|5---5-------5---5---5-------5----|5---5-------5---5---5------------|

G|---------------------------------|---------------------------------|
D|---------------------------------|---------------------------------|
A|5---5-------5---5----------------|5---5-------5---5-------5--------|
E|---------------------------------|---------------------------------|


[Verse 2]
G|---------------------------------|---------------------------------|
D|---------------------------------|---------------------------------|
A|5-------4-------0---0---2---3----|----3----------------------------|
E|------------2--------------------|--------0---0---3---3---5---5----|

G|---------------------------------|---------------------------------|
D|---------------------------------|---------------------------------|
A|--------2-------5-----------5----|----5-----------0---2---3---4----|
E|3---3---------------7---5--------|--------2---2--------------------|

G|---------------------------------|---------------------------------|
D|---------------------------------|---------------------------------|
A|5---------------0---0---2---3----|----3----------------------------|
E|--------2---2--------------------|--------0---0---3---3---5---5----|

G|---------------------------------|---------------------------------|
D|---------------------------------|---------------------------------|
A|--------2-------5-----------5----|----5----------------------------|
E|3---3---------------7---5--------|--------2---2---3---3---4---5----|

G|---------------------------------|---------------------------------|
D|---------------------------------|---------------------------------|
A|5---------------0-------2---3----|----3----------------------------|
E|--------2------------------------|--------0-------3-------5--------|

G|---------------------------------|---------------------------------|
D|---------------------------------|---------------------------------|
A|--------2-------5-----------5----|----5---2---2---0---0------------|
E|3-------------------7---5--------|------------------------2---2----|

G|---------------------------------|---------------------------------|
D|---------------------------------|---------------------------------|
A|5---------------0-------2---3----|----3----------------------------|
E|--------2------------------------|--------0---0---3---3---5---5----|

G|---------------------------------|---------------------------------|
D|---------------------------------|---------------------------------|
A|--------2-------5-----------5----|----5---5------------------------|
E|3-------------------7---5--------|---------------------------------|

G|---------------------------------|
D|0--------------------------------|
A|---------------------------------|
E|---------------------------------|


[Chorus]
G|---------------------------------|---------------------------------|
D|---------------------------------|---------------------------------|
A|--------5---2---0---2---4---5----|----4-----------0---0---2---5----|
E|3--------------------------------|--------2---2--------------------|

G|---------------------------------|---------------------------------|
D|---------------------------------|---------------------------------|
A|--------0---2---4---1---4---2----|----2-----------2----------------|
E|3--------------------------------|--------2---2-----------3---4----|

G|---------------------------------|---------------------------------|
D|---------------------------------|---------------------------------|
A|----------------------------4----|5---5-------5-----------5---6----|
E|5-------5---5---5---5------------|---------------------------------|

G|---------------------------------|---------------------------------|
D|---------------------------------|---------------------------------|
A|7---7-------7---7---7-------7----|7---7-----------7---7---7--------|
E|---------------------------------|---------------------------------|

G|---------------------------------|---------------------------------|
D|---------------------------------|---------------------------------|
A|--------5---2---0---2---4---5----|----4-----------0---0---2---5----|
E|3--------------------------------|--------2---2--------------------|

G|---------------------------------|---------------------------------|
D|---------------------------------|---------------------------------|
A|--------0---2---4---1---4---2----|----2-----------2----------------|
E|3--------------------------------|--------2---2-----------3---4----|

G|---------------------------------|---------------------------------|
D|---------------------------------|---------------------------------|
A|---------------------------------|---------------------------------|
E|5---5-------5---5---5-------5----|5---5-------5---5-------5---7----|

G|---------------------------------|---------------------------------|
D|---------------------------------|---------------------------------|
A|5---5-------5---5----------------|5---5-------5---5---4------------|
E|---------------------------------|------------------------2---4----|


[Interlude]
G|---------------------------------|---------------------------------|
D|---------------------------------|---------------------------------|
A|---------------------------------|---------------------------------|
E|5---5-------5---5---5-------5----|5---5-------5---5---5-------7----|

G|---------------------------------|---------------------------------|
D|---------------------------------|---------------------------------|
A|5---5-------5---5----------------|5---5-------5---5----------------|
E|---------------------------------|------------------------2--------|


[Verse 3]
G|---------------------------------|---------------------------------|
D|---------------------------------|---------------------------------|
A|5---------------0---0---2---3----|----3-------------------2--------|
E|--------2------------------------|--------0-------3---5-------3----|

G|---------------------------------|---------------------------------|
D|---------------------------------|---------------------------------|
A|--------2---2---5-----------5----|----5-----------------------5----|
E|3---3---------------7---5--------|--------2-------3---4---5--------|

G|---------------------------------|---------------------------------|
D|---------------------------------|---------------------------------|
A|----5-----------0---0---2---3----|----3---------------5---0--------|
E|--------2------------------------|--------0-------3----------------|

G|---------------------------------|---------------------------------|
D|---------------------------------|---------------------------------|
A|--------2-------5-----------5----|----5-----------5---5------------|
E|3-------------------7---5--------|--------7---5-----------7---5----|

G|---------------------------------|---------------------------------|
D|---------------------------------|---------------------------------|
A|5-------5-------0---0---2---3----|----3----------------------------|
E|------------7--------------------|--------0-------3-------5--------|

G|---------------------------------|---------------------------------|
D|---------------------------------|---------------------------------|
A|--------2-------5-----------5----|----5-----------5---5------------|
E|3-------------------7---5--------|--------7---5-----------7---5----|

G|---------------------------------|---------------------------------|
D|---------------------------------|---------------------------------|
A|5---------------0---0---2---3----|----3-------------------2--------|
E|--------2------------------------|--------0-------3---5------------|

G|---------------------------------|---------------------------------|
D|---------------------------------|---------------------------------|
A|--------2-------5-----------5----|----5---5------------------------|
E|3---3---------------7---5--------|---------------------------------|

G|---------------------------------|
D|0--------------------------------|
A|---------------------------------|
E|---------------------------------|


[Chorus]
G|---------------------------------|---------------------------------|
D|---------------------------------|---------------------------------|
A|--------5---2---0---2---4---5----|----4-----------0-------2---5----|
E|3--------------------------------|--------2------------------------|

G|---------------------------------|---------------------------------|
D|---------------------------------|---------------------------------|
A|--------0---2---4---1---4---2----|----2-----------2----------------|
E|3--------------------------------|--------2---2-----------3---4----|

G|---------------------------------|---------------------------------|
D|---------------------------------|---------------------------------|
A|----------------------------4----|5---5-------5-------4---5---6----|
E|5---5-------5---5---5------------|---------------------------------|

G|---------------------------------|---------------------------------|
D|---------------------------------|---------------------------------|
A|7---7-------6---7---7-------7----|7---7-------7-----------7--------|
E|---------------------------------|---------------------------------|

G|---------------------------------|---------------------------------|
D|---------------------------------|---------------------------------|
A|--------5---2---0---2---4---5----|----4-----------0-------2---5----|
E|3--------------------------------|--------2------------------------|

G|---------------------------------|---------------------------------|
D|---------------------------------|---------------------------------|
A|--------0---2---4---1---4---2----|----2-----------2----------------|
E|3--------------------------------|--------2---2-----------3---4----|

G|---------------------------------|---------------------------------|
D|---------------------------------|---------------------------------|
A|---------------------------------|---------------------------------|
E|5---5-------5---5---5-------5----|5---5-------5---5-------5---7----|

G|---------------------------------|---------------------------------|
D|---------------------------------|---------------------------------|
A|5---5-------5---5----------------|5---5-------5---5----------------|
E|---------------------------------|--------------------2---3---4----|


[Interlude]
G|---------------------------------|---------------------------------|
D|---------------------------------|---------------------------------|
A|---------------------------------|---------------------------------|
E|5---5-------5---5---5-------5----|5---5-------5---5---5-------7----|

G|---------------------------------|---------------------------------|
D|---------------------------------|---------------------------------|
A|5---5-------5---5----------------|5---5-------5---5-----------4----|
E|---------------------------------|---------------------------------|

G|---------------------------------|---------------------------------|
D|---------------------------------|---------------------------------|
A|5-------------------2---3---4----|5-------------------2---3---4----|
E|----2---3---4---5----------------|----2---3---4---5----------------|

G|---------------------------------|---------------------------------|
D|---------------------------------|---------------------------------|
A|0---0-------0---0---0-------0----|0---0-------0---0---0---2---4----|
E|---------------------------------|---------------------------------|

G|---------------------------------|---------------------------------|
D|---------------------------------|---------------------------------|
A|5---5-------5---5----------------|5---5-------5---5----------------|
E|---------------------------------|---------------------------------|

G|---------------------------------|---------------------------------|
D|---------------------------------|---------------------------------|
A|0---0-------0---0---0-------0----|0---0-------0---0---0-------4----|
E|---------------------------------|---------------------------------|

G|---------------------------------|---------------------------------|
D|--------4-------7-------4--------|--------4-------7-------4--------|
A|5--------------------------------|5--------------------------------|
E|---------------------------------|---------------------------------|

G|---------------------------------|---------------------------------|
D|---------------------------------|---------------------------------|
A|--------4-------7-------4---7----|--------4-------7-------4---7----|
E|5--------------------------------|5--------------------------------|
Suggest correction
Give kudos to tab author, rate the tab!
1 2 3 4 5
comments
print report bad tab
guest
You may want to rate the tab now too:
select rating
Wanna post a correction for this tab? Suggest correction