Oops, an error
Loading. Please wait.

All Shook Up Tab

version 2
version 2

Whole song

2,340 views 3 this week
no commentswrite comment
1 2 3 4 5
2 more votes to show rating
add to favorites
launch autoscroll
font size
0
reset
how to read this tab
guitar tuner
Autoscroll
slow
fast
+/-
esc
set tempo
stop
Help us to improve Ultimate-Guitar.com Take our survey!
×
Author
Difficulty
intermediate
All Shook Up
Paul McCartney

       

Intro: CONTINUES UNTIL THE CHORUS.(Guitar Solo)
  E|-----------------------------------------------------------------------|
  B|-----------------------------------------------------------------------|
  G|-----------------------------------------------------------------------|
  D|-------------------5B6-------------------------------------------------|
  A|-------------5-7-------7-5-7-7-5---7-7-5-7-----------------------------|
  E|-------5/7-----------------------7-------------------------------------|

(Guitar Base)
G
A well a,bless my soul.
G
What's wrong with me?
G
I'm itching like a man on a fuzzy tree.
G
My friends I'm acting queer as a bug.
  E|-----------------------------------------------------------------------|
  B|-----------------------------------------------------------------------|
  G|-----------------------------------------------------------------------|
  D|-------------------5B6-------------------------------------------------|
  A|-------------5-7---------7---------------------------------------------|
  E|-------5/7-------------------------------------------------------------|
G
I'm in Love
               C               D               G
REF: E|--------------------------------------------------------------------|
     B|--------------------------------------------------------------------|
     G|--------------------------------------------------------------------|
     D|--------5--7-5-7-5-5-5--7--9-7-9-7-7-7------------------------------|
     A|--------3--3-3-3-3-3-3--5--5-5-5-5-5-5--5--7-5-7-5-7-5--------------|
     E|----------------------------------------3--3-3-3-3-3-3--------------|
                      C    D      G    
I'm all shook up! Mm mm oh oh yeah yeah

CONTINUES UNTIL THE CHORUS.(Guitar Solo)
  E|-----------------------------------------------------------------------|
  B|-----------------------------------------------------------------------|
  G|-----------------------------------------------------------------------|
  D|-------------------5B6-------------------------------------------------|
  A|-------------5-7-------7-5-7-7-5---7-7-5-7-----------------------------|
  E|-------5/7-----------------------7-------------------------------------|


G
My hands are shaky and my knees are weak.
G
I can't seem to stand on my own two feet
G
Who do you thank when you have such luck?
  E|-----------------------------------------------------------------------|
  B|-----------------------------------------------------------------------|
  G|-----------------------------------------------------------------------|
  D|-------------------5B6-------------------------------------------------|
  A|-------------5-7---------7---------------------------------------------|
  E|-------5/7-------------------------------------------------------------|
G
I'm in love 
                      
               C               D               G
 REF:E|--------------------------------------------------------------------|
     B|--------------------------------------------------------------------|
     G|--------------------------------------------------------------------|
     D|--------5--7-5-7-5-5-5--7--9-7-9-7-7-7------------------------------|
     A|--------3--3-3-3-3-3-3--5--5-5-5-5-5-5--5--7-5-7-5-7-5--------------|
     E|----------------------------------------3--3-3-3-3-3-3--------------|
                                     
                      C    D      G
I'm all shook up! Mm mm oh oh yeah yeah
               C               C
     E|--------------------------------------------------------------------|
     B|--------------------------------------------------------------------|
     G|--------------------------------------------------------------------|
     D|--------5--7-5-7-5-5-5--5--7-5-7-5-5-5------------------------------|
     A|--------3--3-3-3-3-3-3--3--3-3-3-3-3-3------------------------------|
     E|--------------------------------------------------------------------|
C
Please don't ask what's on my minD
             G               G
   E|--------------------------------------------------------------------|
   B|--------------------------------------------------------------------|
   G|--------------------------------------------------------------------|
   D|--------------------------------------------------------------------|
   A|--------5--7-5-7-5-5-5--5--7-5-7-5-5-5------------------------------|
   E|--------3--3-3-3-3-3-3--3--3-3-3-3-3-3------------------------------|
G
I'm a little mixed up but I'm feeling fine
               C               C
     E|--------------------------------------------------------------------|
     B|--------------------------------------------------------------------|
     G|--------------------------------------------------------------------|
     D|--------5--7-5-7-5-5-5--5--7-5-7-5-5-5------------------------------|
     A|--------3--3-3-3-3-3-3--3--3-3-3-3-3-3------------------------------|
     E|--------------------------------------------------------------------|
C            
When I'm near that girl that I love best
               D
     E|--------------------------------------------------------------------|
     B|--------------------------------------------------------------------|
     G|--------------------------------------------------------------------|
     D|--------7--9-7-9-7-9-7----------------------------------------------|
     A|--------5--5-5-5-5-5-5----------------------------------------------|
     E|--------------------------------------------------------------------|
D
My heart beats so it scares me to death
         CONTINUES UNTIL THE CHORUS.(Guitar Solo)
  E|-----------------------------------------------------------------------|
  B|-----------------------------------------------------------------------|
  G|-----------------------------------------------------------------------|
  D|-------------------5B6-------------------------------------------------|
  A|-------------5-7-------7-5-7-7-5---7-7-5-7-----------------------------|
  E|-------5/7-----------------------7-------------------------------------|
G
She touched my hand, what a chill I got
G
Her kisses are like a volcano that's hot
G
I'm proud to say she's my buttercup
  E|-----------------------------------------------------------------------|
  B|-----------------------------------------------------------------------|
  G|-----------------------------------------------------------------------|
  D|-------------------5B6-------------------------------------------------|
  A|-------------5-7---------7---------------------------------------------|
  E|-------5/7-------------------------------------------------------------|
G
I'm in love
               C               D               G
 REF:E|--------------------------------------------------------------------|
     B|--------------------------------------------------------------------|
     G|--------------------------------------------------------------------|
     D|--------5--7-5-7-5-5-5--7--9-7-9-7-7-7------------------------------|
     A|--------3--3-3-3-3-3-3--5--5-5-5-5-5-5--5--7-5-7-5-7-5--------------|
     E|----------------------------------------3--3-3-3-3-3-3--------------|
                      C    D      G
I'm all shook up! Mm mm oh oh yeah yeah
----------------------------------------------------------------------------
SOLO:                    C
  E|-----------------------------------------------------------------------|
  B|-----------------------------------------------------------------------|
  G|-------------------12B13-----------------------------------------------|
  D|-------------12-14-------14-12-14-14-12----14-14-12-14-----------------|
  A|-------12/14----------------------------14-----------------------------|
  E|-----------------------------------------------------------------------|
                         G
  E|-----------------------------------------------------------------------|
  B|-----------------------------------------------------------------------|
  G|-------------------12B13-----------------------------------------------|
  D|-------------12-14-------14-12-14-14-12----14-14-12-14-----------------|
  A|-------12/14----------------------------14-----------------------------|
  E|-----------------------------------------------------------------------|
                         C
  E|-----------------------------------------------------------------------|
  B|-----------------------------------------------------------------------|
  G|-------------------12B13-----------------------------------------------|
  D|-------------12-14-------14-12-14-14-12----14-14-12-14-----------------|
  A|-------12/14----------------------------14-----------------------------|
  E|-----------------------------------------------------------------------|
                         G
  E|-----------------------------------------------------------------------|
  B|-----------------------------------------------------------------------|
  G|-------------------12B13-----------------------------------------------|
  D|-------------12-14-------14-12-14-14-12----14-14-12-14-----------------|
  A|-------12/14----------------------------14-----------------------------|
  E|-----------------------------------------------------------------------|
                         C
  E|-----------------------------------------------------------------------|
  B|-----------------------------------------------------------------------|
  G|-------------------12B13-----------------------------------------------|
  D|-------------12-14-------14-12-14-14-12----14-14-12-14-----------------|
  A|-------12/14----------------------------14-----------------------------|
  E|-----------------------------------------------------------------------|
                         G
  E|-----------------------------------------------------------------------|
  B|-----------------------------------------------------------------------|
  G|-------------------12B13-----------------------------------------------|
  D|-------------12-14-------14-12-14-14-12----14-14-12-14-----------------|
  A|-------12/14----------------------------14-----------------------------|
  E|-----------------------------------------------------------------------|
----------------------------------------------------------------------------
               C               C
     E|--------------------------------------------------------------------|
     B|--------------------------------------------------------------------|
     G|--------------------------------------------------------------------|
     D|--------5--7-5-7-5-5-5--5--7-5-7-5-5-5------------------------------|
     A|--------3--3-3-3-3-3-3--3--3-3-3-3-3-3------------------------------|
     E|--------------------------------------------------------------------|
C
Tongue gets tied when I try to speak
               G               G
     E|--------------------------------------------------------------------|
     B|--------------------------------------------------------------------|
     G|--------------------------------------------------------------------|
     D|--------------------------------------------------------------------|
     A|--------5--7-5-7-5-5-5--5--7-5-7-5-5-5------------------------------|
     E|--------3--3-3-3-3-3-3--3--3-3-3-3-3-3------------------------------|
G
My insides shake like a leaf on a tree
               C               C
     E|--------------------------------------------------------------------|
     B|--------------------------------------------------------------------|
     G|--------------------------------------------------------------------|
     D|--------5--7-5-7-5-5-5--5--7-5-7-5-5-5------------------------------|
     A|--------3--3-3-3-3-3-3--3--3-3-3-3-3-3------------------------------|
     E|--------------------------------------------------------------------|
C
That's only one cure for this soul of mine
               D
     E|--------------------------------------------------------------------|
     B|--------------------------------------------------------------------|
     G|--------------------------------------------------------------------|
     D|--------7--9-7-9-7-9-7----------------------------------------------|
     A|--------5--5-5-5-5-5-5----------------------------------------------|
     E|--------------------------------------------------------------------|
D
That' to have the girl that I love so fine
            CONTINUES UNTIL THE CHORUS.(Guitar Solo)
  E|-----------------------------------------------------------------------|
  B|-----------------------------------------------------------------------|
  G|-----------------------------------------------------------------------|
  D|-------------------5B6-------------------------------------------------|
  A|-------------5-7-------7-5-7-7-5---7-7-5-7-----------------------------|
  E|-------5/7-----------------------7-------------------------------------|
G
She touched my hand, what a chill I got
G
Her kisses are like a volcano that's hot
G
I'm proud to say she's my buttercup
  E|-----------------------------------------------------------------------|
  B|-----------------------------------------------------------------------|
  G|-----------------------------------------------------------------------|
  D|-------------------5B6-------------------------------------------------|
  A|-------------5-7---------7---------------------------------------------|
  E|-------5/7-------------------------------------------------------------|
G
I'm in love
               C               D               G
 REF:E|--------------------------------------------------------------------|
     B|--------------------------------------------------------------------|
     G|--------------------------------------------------------------------|
     D|--------5--7-5-7-5-5-5--7--9-7-9-7-7-7------------------------------|
     A|--------3--3-3-3-3-3-3--5--5-5-5-5-5-5--5--7-5-7-5-7-5--------------|
     E|----------------------------------------3--3-3-3-3-3-3--------------|

                     C     D     G    
I'm all shook up! Mm mm oh oh yeah yeah
               C               D               G
 REF:E|--------------------------------------------------------------------|
     B|--------------------------------------------------------------------|
     G|--------------------------------------------------------------------|
     D|--------5--7-5-7-5-5-5--7--9-7-9-7-7-7------------------------------|
     A|--------3--3-3-3-3-3-3--5--5-5-5-5-5-5--5--7-5-7-5-7-5--------------|
     E|----------------------------------------3--3-3-3-3-3-3--------------|
 
    C     D     G    
Mm mm oh oh yeah yeah
               C               D               G
 REF:E|--------------------------------------------------------------------|
     B|--------------------------------------------------------------------|
     G|--------------------------------------------------------------------|
     D|--------5--7-5-7-5-5-5--7--9-7-9-7-7-7------------------------------|
     A|--------3--3-3-3-3-3-3--5--5-5-5-5-5-5--5--7-5-7-5-7-5-5-5--5-------|
     E|----------------------------------------3--3-3-3-3-3-3-3-3--3-------|
 
 C     D     G    
Mm mm oh oh yeah yeah I'M ALL SHOOK UP!!!

Suggest correction
Give kudos to tab author, rate the tab!
1 2 3 4 5
comments
print report bad tab
guest
You may want to rate the tab now too:
select rating
Wanna post a correction for this tab? Suggest correction