Oops, an error
Loading. Please wait.

Alligator Bass Tab

31 views 6 this week
no commentswrite comment
1 2 3 4 5
3 more votes to show rating
add to favorites
launch autoscroll
font size
0
reset
guitar tuner
Autoscroll
slow
fast
+/-
esc
set tempo
stop
Help us to improve Ultimate-Guitar.com Take our survey!
×
00:10
Verse 1 :
G|---------------------------------|---------------------------------|
D|---------------------------------|---------------------------------|
A|---------------------------------|7--------------------------------|
E|7--------------------------------|---------------------------------|

G|---------------------------------|---------------------------------|
D|---------------------------------|---------------------------------|
A|---------------------------------|7--------------------------------|
E|7--------------------------------|---------------------------------|

G|---------------------------------|---------------------------------|
D|---------------------------------|---------------------------------|
A|4--------------------------------|---------------------------------|
E|---------------------------------|---------------------------------|

G|---------------------------------|---------------------------------|
D|---------------------------------|---------------------------------|
A|3--------------------------------|---------------------------------|
E|---------------------------------|---------------------------------|

G|---------------------------------|---------------------------------|
D|----------------7-------5--------|----------------7-------5--------|
A|---------------------------------|---------------------------------|
E|7--------------------------------|6--------------------------------|

G|---------------------------------|
D|----------------7-------5--------|
A|---------------------------------|
E|5--------------------------------|

Chorus :
G|---------------------------------|---------------------------------|
D|---------------------------------|---------------------------------|
A|---------------------------------|2---------------2----------------|
E|3--------------------------------|---------------------------------|

G|---------------------------------|---------------------------------|
D|2---------------2----------------|---------------------------------|
A|---------------------------------|2---------------2----------------|
E|---------------------------------|---------------------------------|

G|---------------------------------|---------------------------------|
D|---------------------------------|---------------------------------|
A|3---------------3----------------|---------------------------------|
E|---------------------------------|3---------------3----------------|

G|---------------------------------|---------------------------------|
D|2----------------2---------------|---------------------------------|
A|---------------------------------|------------------------2--------|
E|---------------------------------|0-------2-------3----------------|

G|---------------------------------|---------------------------------|
D|---------------------------------|---------------------------------|
A|3----------------3---------------|---------------------------------|
E|---------------------------------|0-------0------------------------|

G|---------------------------------|---------------------------------|
D|---------------------------------|---------------------------------|
A|3--------------------------------|2--------------------------------|
E|---------------------------------|---------------------------------|

G|---------------------------------|---------------------------------|
D|---------------------------------|---------------------------------|
A|---------------------------------|---------------------------------|
E|---------------------------------|---------------------------------|

Interlude
G|---------------------------------|9---------------9----------------|
D|9---------------9----------------|---------------------------------|
A|---------------------------------|---------------------------------|
E|---------------------------------|---------------------------------|

G|---------------------------------|----------------7---/---9---7----|
D|9---------------9----------------|---------------------------------|
A|---------------------------------|7--------------------------------|
E|---------------------------------|---------------------------------|

Verse 2 :
G|---------------------------------|---------------------------------|
D|---------------------------------|---------------------------------|
A|---------------------------------|7--------------------------------|
E|7--------------------------------|---------------------------------|

G|---------------------------------|---------------------------------|
D|---------------------------------|---------------------------------|
A|---------------------------------|7--------------------------------|
E|7--------------------------------|---------------------------------|

G|---------------------------------|---------------------------------|
D|---------------------------------|---------------------------------|
A|4--------------------------------|---------------------------------|
E|---------------------------------|---------------------------------|

G|---------------------------------|---------------------------------|
D|---------------------------------|---------------------------------|
A|3--------------------------------|---------------------------------|
E|---------------------------------|---------------------------------|

G|---------------------------------|---------------------------------|
D|----------------7-------5--------|----------------7-------5--------|
A|---------------------------------|---------------------------------|
E|7--------------------------------|6--------------------------------|

G|---------------------------------|
D|----------------7-------5--------|
A|---------------------------------|
E|5--------------------------------|

Chorus :
G|---------------------------------|---------------------------------|
D|---------------------------------|---------------------------------|
A|---------------------------------|2---------------2----------------|
E|3--------------------------------|---------------------------------|

G|---------------------------------|---------------------------------|
D|2---------------2----------------|---------------------------------|
A|---------------------------------|2---------------2----------------|
E|---------------------------------|---------------------------------|

G|---------------------------------|---------------------------------|
D|---------------------------------|---------------------------------|
A|3---------------3----------------|---------------------------------|
E|---------------------------------|3---------------3----------------|

G|---------------------------------|---------------------------------|
D|2----------------2---------------|---------------------------------|
A|---------------------------------|------------------------2--------|
E|---------------------------------|0-------2-------3----------------|

G|---------------------------------|---------------------------------|
D|---------------------------------|2--------------------------------|
A|3----------------3---------------|----------------2----------------|
E|---------------------------------|---------------------------------|

G|---------------------------------|---------------------------------|
D|---------------------------------|---------------------------------|
A|3--------------------------------|2-------2-------2-------2--------|
E|---------------------------------|---------------------------------|

G|---------------------------------|
D|---------------------------------|
A|2--------------------------------|
E|---------------------------------|

Bridge
G|---------------------------------|---------------------------------|
D|---------------------------------|---------------------------------|
A|---------------------------------|2--------------------------------|
E|3--------------------------------|---------------------------------|

G|---------------------------------|---------------------------------|
D|2--------------------------------|---------------------------------|
A|---------------------------------|---------------------------------|
E|---------------------------------|---------------------------------|

G|---------------------------------|---------------------------------|
D|---------------------------------|---------------------------------|
A|---------------------------------|2--------------------------------|
E|3--------------------------------|---------------------------------|

G|---------------------------------|---------------------------------|
D|2--------------------------------|---------------------------------|
A|---------------------------------|---------------------------------|
E|---------------------------------|----------------0-------1--------|

G|---------------------------------|---------------------------------|
D|---------------------------------|---------------------------------|
A|---------------------------------|2--------------------------------|
E|3--------------------------------|---------------------------------|

G|---------------------------------|---------------------------------|
D|2--------------------------------|---------------------------------|
A|---------------------------------|---------------------------------|
E|---------------------------------|---------------------------------|

G|---------------------------7/----|9---------------9----------------|
D|9--------------------------------|----------------------------7/---|
A|---------------------------------|---------------------------------|
E|---------------------------------|---------------------------------|

G|---------------------------------|---------------------------------|
D|9---------------------------\----|2---------------2-----------/----|
A|---------------------------------|---------------------------------|
E|---------------------------------|---------------------------------|

Verse 3 :
G|---------------------------------|---------------------------------|
D|9-------9-------9-------9--------|---------------------------------|
A|---------------------------------|7-------7-------7-------7--------|
E|---------------------------------|---------------------------------|

G|---------------------------------|---------------------------------|
D|9-------9-------9-------9--------|---------------------------------|
A|---------------------------------|7-------7-------7-------7--------|
E|---------------------------------|---------------------------------|

G|---------------------------------|---------------------------------|
D|---------------------------------|---------------------------------|
A|4--------------------------------|---------------------------------|
E|---------------------------------|---------------------------------|

G|---------------------------------|---------------------------------|
D|---------------------------------|---------------------------------|
A|3--------------------------------|---------------------------------|
E|---------------------------------|---------------------------------|

G|---------------------------------|---------------------------------|
D|----------------7-------5--------|----------------7-------5--------|
A|---------------------------------|---------------------------------|
E|7--------------------------------|6--------------------------------|

G|---------------------------------|
D|----------------7-------5--------|
A|---------------------------------|
E|5--------------------------------|

Chorus :
G|---------------------------------|---------------------------------|
D|---------------------------------|---------------------------------|
A|---------------------------------|2---------------2----------------|
E|3-----------------------3--------|---------------------------------|

G|---------------------------------|---------------------------------|
D|2--------------------------------|---------------------------------|
A|---------------------------------|2--------------------------------|
E|----------------0----------------|---------------------------------|

G|---------------------------------|---------------------------------|
D|---------------------------------|---------------------------------|
A|3-----------------------3--------|---------------------------------|
E|---------------------------------|3--------------------------------|

G|---------------------------------|---------------------------------|
D|2--------------------------------|---------------------------------|
A|---------------------------------|------------------------2--------|
E|---------------------------------|0-------2-------3----------------|

G|---------------------------------|---------------------------------|
D|---------------------------------|---------------------------------|
A|3----------------3---------------|---------------------------------|
E|---------------------------------|0---------------0----------------|

G|---------------------------------|---------------------------------|
D|---------------------------------|9-------9-------9-------9--------|
A|3----------------3---------------|---------------------------------|
E|---------------------------------|---------------------------------|

G|---------------------------------|
D|9--------------------------------|
A|---------------------------------|
E|---------------------------------|

Bridge - Outro
G|---------------------------------|---------------------------------|
D|---------------------------------|---------------------------------|
A|---------------------------------|2--------------------------------|
E|3--------------------------------|---------------------------------|

G|---------------------------------|---------------------------------|
D|2--------------------------------|---------------------------------|
A|---------------------------------|---------------------------------|
E|---------------------------------|---------------------------------|

G|---------------------------------|---------------------------------|
D|---------------------------------|---------------------------------|
A|---------------------------------|2--------------------------------|
E|3--------------------------------|---------------------------------|

G|---------------------------------|---------------------------------|
D|2--------------------------------|---------------------------------|
A|---------------------------------|---------------------------------|
E|---------------------------------|----------------2----------------|

G|---------------------------------|---------------------------------|
D|---------------------------------|---------------------------------|
A|---------------------------------|2--------------------------------|
E|3--------------------------------|---------------------------------|

G|---------------------------------|---------------------------------|
D|---------------------------------|---------------------------------|
A|---------------------------------|---------------------------------|
E|0--------------------------------|---------------------------------|

G|---------------------------7/----|9-----------9-\-7----------------|
D|9--------------------------------|----------------------------7/---|
A|---------------------------------|---------------------------------|
E|---------------------------------|---------------------------------|

G|---------------------------------|---------------------------------|
D|9--------------------------------|---------------------------------|
A|---------------------------------|7-----------------------7--------|
E|---------------------------------|---------------------------------|

G|---------------------------------|---------------------------------|
D|---------------------------------|---------------------------------|
A|---------------------------------|---------------------------------|
E|7---------------7----------------|0---------------0----------------|

G|---------------------------------|---------------------------------|
D|---------------------------------|-------------------------3---/---|
A|---------------------------------|---------------------------------|
E|7---------------7----------------|0---------------0----------------|

G|---------------------------------|---------------------------------|
D|9-------9---------------9--------|---------------------------------|
A|---------------------------------|---------------------------------|
E|---------------------------------|0-------0----------------0-------|

G|---------------------------------|---------------------------------|
D|--------9---------------12-------|---------------------------------|
A|---------------------------------|---------------------------------|
E|---------------------------------|--------10-----------------------|

G|---------------------------------|---------------------------------|
D|--------9---------------9--------|---------------------------------|
A|---------------------------------|---------------------------------|
E|---------------------------------|0-------0------------------------|

G|---------------------------------|---------------------------------|
D|---------------------------------|---------------------------------|
A|---------------------------------|---------------------------------|
E|7---------------3----------------|0--------------------------------|
Suggest correction
Give kudos to tab author, rate the tab!
1 2 3 4 5
comments
print report bad tab
guest
You may want to rate the tab now too:
select rating
Wanna post a correction for this tab? Suggest correction