Oops, an error
Loading. Please wait.

Another Day Bass Tab

version 2
version 2

Whole song

Interactive

6,204 views 6 this week
no commentswrite comment
1 2 3 4 5
please rate
add to favorites
launch autoscroll
font size
0
reset
guitar tuner
Tab Pro tools
  • play this tab
  • loop segment
  • change instrument
  • show fretboard
  • metronome
×
Best way to learn
"Another Day"
Autoscroll
slow
fast
+/-
esc
set tempo
stop
Contributor
    --------------------------------------------------------------

    PAUL McCARTNEY - ANOTHER DAY (Paul & Linda McCartney) Released 
                     as a single with OH WOMAN OH WHY as B side on 
                     19th February 1971. 
                      
    --------------------------------------------------------------

    Bass tab by:PJVillanueva






    Every day she takes a morning bath she wets her hair
    Wraps a towel around her
    As she’s heading for the bedroom chair
    It’s just another day

    Slipping into stockings
    Stepping into shoes
    Dipping in the pocket of her raincoat
    It’s just another day

    At the office where the papers grow she takes a break
    Drinks another coffe
    And she finds it hard to stay awake

    It’s just another day  do do do do do
    It’s just another day  do do do do do
    It’s just another day

    So sad  so sad
    Sometimes she feels so sad

    Alone in her apartment she’d dwell
    Till the man of her dreams comes to break the spell

    Ah stay don’t stand around
    And he comes and he stays
    But he leaves the next day
    So sad
    Sometimes she feels so sad

    As she posts another letter to the sound of five
    People gather ’round her
    And she finds it hard to stay alive

    It’s just another day  do do do do do
    It’s just another day  do do do do do
    It’s just another day

    Eeeeeheeeey

    So sad  so sad
    Sometimes she feels so sad 
    Alone in her apartment she’d dwell 
    Till the man of her dreams comes to break the spell 

    Ah stay don’t stand around
    And he comes and he stays
    But he leaves the next day 
    So sad  
    Sometimes she feels so sad 

    Every day she takes a morning bath she wets her hair 
    Wraps a towel around her
    As she’s heading for the bedroom chair 
    It’s just another day 

    Slipping into stockings 
    Stepping into shoes 
    Dipping in the pocket of her raincoat 

    It’s just another day  do do do do do
    It’s just another day  do do do do do
    It’s just another day




    4/4 time
                                                            Every


  G|------- ------- ------- -------|------- ------- ------- -------|
  D|5------------------------------|4------------------------------|
  A|-------------------------------|-------------------------------|
  E|-------------------------------|-------------------------------|
    day she  takes  morning bath    wets    hair
                a               she     her



  G|------- ------- ------- -------|------- ------- ------- -------|
  D|-------------------------------|7------------------------------|
  A|7------------------------------|--------------------7-\--------|
  E|-------------------------------|-------------------------------|
    Wraps   towel       her as  she’s       for the bedroom     chair
        a       around              heading



  G|------- ------- ------- -------|------- ------- ----9-\ 7------|
  D|------------------------4------|5-----------5------------------|
  A|0-----------5-------7----------|-------------------------------|
  E|-------------------------------|-------------------------------|
        It’s    another         day
            just


  G|------- ------- ------- -------|------- ------- ------- -------|
  D|------------5------------------|-------------------------------|
  A|3------------------------------|3---5--------------------------|
  E|-------------------------------|------------3------------------|
    Slipping    stockings,          stepping    shoes
        into                            into



  G|------- ------- ------- -------|------- ------- ------- -------|
  D|------------5-------4---5------|7------------------------------|
  A|3------------------------------|-------------------------------|
  E|-------------------------------|-------------------------------|
    dipping the pocket  of   her
        in                      raincoat        
  


  G|------- ------- ------- -------|
  D|7---7---7---7---7---5---4------|
  A|----------------------------7--|
  E|-------------------------------|




  G|------- ------- ------- -------|------- ------- ------- -------|
  D|------------------------4------|5-----\------------------------|
  A|5-----------5-------7----------|-------------------------------|
  E|-------------------------------|------------3------------------|
        it’s    another         day                         At  the
            just


    00:26
  G|------- ------- ------- -------|------- ------- ------- -------|
  D|5------------------------------|-------------------------------|
  A|-------------------------------|-------------------------------|
  E|------------3------------------|2-----------2------------------|
    office  where   papers  grow    takes   break
                the             she     a



  G|------- ------- ------- -------|------- ------- ------- -------|
  D|-------------------------------|-------------------------------|
  A|-------------------------------|0-----------0------------------|
  E|0-----------0------------------|-------------------------------|
    drinks          coffee  and she finds   hard    stay 
        another                         it      to      awake



  G|------- ------- ------- -------|------- ------- ------- -------|
  D|------------------------4------|5-----------5-\----------------|
  A|0-----------5-------7----------|------------------------0---2--|
  E|-------------------------------|--------------------3----------|
        It’s    another         day 
            just


  G|------- ----0-- ------- -------|------- ------- ------- -------|
  D|----0---2----------------------|-------------------------------|
  A|3---------------3---5---2-/-3--|0---2---3---0-5---0-3---2---0--|
  E|-------------------------------|-------------------------------|
            Do  do  do  do      do      it’s    another         day
                                            just


  G|------- ------- ----1-- ----4--|2---0-- ------- ------- -------|
  D|--------0---/2-----------------|--------4---2-0----------------|
  A|----2--------------------------|------------------0-3---2---0--|
  E|3------------------------------|-------------------------------|
            do  do  do  do      do      it’s    another         day
                                            just


  G|------- ------- ------- -------|------- ------- ------- -------|
  D|--------0---5--------\---------|5-----------4-------5---4------|
  A|----2--------------------------|-------------------------------|
  E|3------------------------------|-------------------------------|




  G|------- ------- ------- -------|------- ------- ------- -------|
  D|2------------------------------|------------2---5--------------|
  A|------------2------------------|--------2----------------------|
  E|------------------------3------|0---3--------------------------|
                                                            So

    3/4

    00:53
  G|------- ------- -------|------- ------- -------|
  D|2----------------------|-----------------------|
  A|------------2----------|----------------2------|
  E|--------------------3--|0-------3--------------|
    sad                                     so



  G|------- ------- -------|------- ------- -------|
  D|-----------------------|-----------------------|
  A|3----------------------|-----------------------|
  E|-----------------------|3----------------------|
    sad



  G|------- ------- -------|------- ------- -------|
  D|-----------------------|-----------------------|
  A|4----------------------|3----------------------|
  E|-----------------------|-----------------------|
    sometimes       she fels                so



  G|------- ------- -------|------- ------- -------|
  D|-----------------------|-----------------------|
  A|2----------------------|----------------2------|
  E|-----------------------|0-------3--------------|
    sad                                     Alone



    01:05
  G|------- ------- -------|------- ------- -------|
  D|2----------------------|-----------------------|
  A|-----------------------|----------------2------|
  E|-----------------------|0-------3--------------|
                in  her apartment           she’d



  G|------- ------- -------|------- ------- -------|
  D|-----------------------|-----------------------|
  A|3----------------------|-----------------------|
  E|-----------------------|3----------------------|
    dwell           till    man     of      her 
                        the


  G|------- ------- -------|------- ------- -------|
  D|-----------------------|-----------------------|
  A|4----------------------|3----------------------|
  E|-----------------------|-----------------------|
    dreams  comes   to  break               the



  G|------- ------- -------|------- ------- -------|
  D|2----------------------|-----------------------|
  A|------------2----------|-----------------------|
  E|--------------------3--|0----------------------|
    spell



  G|------- ------- -------|------- ------- -------|
  D|2---2---2---2----------|2-------4-------6------|
  A|--------------------2--|-----------------------|
  E|-----------------------|-----------------------|
    Aaaaaaaaaaaaaaaaaaaaaaaaaaaaaaaaaaaaaaaaaaahhhh



  G|------- ------- -------|------- ------- -------|
  D|7---7------------------|7-\--------------------|
  A|------------7-------5--|-----------------------|
  E|-----------------------|-----------------------|
    stay                    don't   stand   around


    6/8
    01:23
  G|-------- --------|-------- --------|-------- --------|-------- --------|
  D|-----------------|-----------------|-----------------|-----------------|
  A|5--------5-------|5--------5-------|5--------5-------|------4-----6----|
  E|-----------------|-----------------|-----------------|7----------------|
                and   comes       and   stays       But   leaves      next 
                   he                he                he       the
    3/4

  G|------- ------- -------|------- ------- -------|
  D|-----------------------|-----------------------|
  A|7-----------7----------|7-------7--------------|
  E|--------------------7--|-----------------------|
    day                                     so


  G|------- ------- -------|------- ------- -------|
  D|------------2-------5--|-----------------------|
  A|3----------------------|3-------3--------------|
  E|-----------------------|-----------------------|
    sad


  G|------- ------- -------|------- ------- -------|
  D|-----------------------|-----------------------|
  A|4----------------------|3----------------------|
  E|-----------------------|-----------------------|
    Sometimes       she feels               so


  G|------- ------- -------|------- ------- -------|
  D|-----------------------|-----------------------|
  A|2----------------------|-----------------------|
  E|----------------3------|0-------0--------------|
    sad                                     As  she


    4/4

    01:40
  G|------- ------- ------- -------|------- ------- ------- -------|
  D|-------------------------------|-------------------------------|
  A|-------------------------------|-------------------------------|
  E|3-----------3------------------|2-----------2------------------|
    posts           letter  to  the sound   five
        another                         of


  G|------- ------- ------- -------|------- ------- ------- -------|
  D|-------------------------------|-------------------------------|
  A|-------------------------------|0-----------0------------------|
  E|0-----------0------------------|-------------------------------|
    People  gather ’round   and she finds   hard    stay 
                        her             it      to      alive



  G|------- ------- ------- -------|------- ------- ------- -------|
  D|------------------------4------|5------------------------------|
  A|0-----------5-------7----------|--------------------0---2------|
  E|-------------------------------|------------3------------------|
        It’s    another         day
            just


  G|------- ----0-- ------- -------|------- ------- ------- -------|
  D|----0---2----------------------|-------------------------------|
  A|3---------------3---5---2---0--|0---2---3---0-5---0-3---2---0--|
  E|-------------------------------|-------------------------------|
            Do  do  do  do      do      it’s    another         day
                                            just


  G|------- ------- ------- ----9--|------- ------- ------- -------|
  D|--------0-------------6-9------|7---5---4---2-0----------------|
  A|----2-------2-/-7---7----------|------------------0-3---2---0--|
  E|3------------------------------|-------------------------------|
            do  do do  do       do      it’s    another         day
                                            just


  G|------- ------- ------- -------|------- ------- ------- -------|
  D|------------5------------------|5---5-------4-------5---4---\--|
  A|-------------------------------|-------------------------------|
  E|3---3--------------------------|-------------------------------|
                                    Eeeeeeeeeeeeeeeeheeeeeeeeeeeeee



  G|------- ------- ------- -------|------- ------- ------- -------|
  D|2------------------------------|------------2---5--------------|
  A|------------2------------------|--------2----------------------|
  E|------------------------3------|0---3--------------------------|
                                                            So
    eeeeeyyy

 
    02:08
  G|------- ------- -------|------- ------- -------|
  D|2-----------2----------|-----------------------|
  A|--------------------2--|----------------2------|
  E|-----------------------|0-------3--------------|
    sad                                     so



  G|------- ------- -------|------- ------- -------|
  D|-----------------------|-----------------------|
  A|3----------------------|-----------------------|
  E|-----------------------|3----------------------|
    sad



  G|------- ------- -------|------- ------- -------|
  D|-----------------------|-----------------------|
  A|4----------------------|3----------------------|
  E|-----------------------|-----------------------|
    sometimes       she fels                so



  G|------- ------- -------|------- ------- -------|
  D|-----------------------|2----------------------|
  A|2----------------------|--------2--------------|
  E|-----------------------|----------------3------|
    sad                                     Alone



    01:05
  G|------- ------- -------|------- ------- -------|
  D|-----------------------|-----------------------|
  A|-----------------------|2----------------------|
  E|0----------------------|-----------------------|
                in  her apartment           she’d



  G|------- ------- -------|------- ------- -------|
  D|-----------------------|-----------------------|
  A|3----------------------|-----------------------|
  E|-----------------------|3----------------------|
    dwell           till    man     of      her 
                        the


  G|------- ------- -------|------- ------- -------|
  D|-----------------------|-----------------------|
  A|4----------------------|3----------------------|
  E|-----------------------|-----------------------|
    dreams  comes   to  break               the



  G|------- ------- -------|------- ------- -------|
  D|-----------------------|----------------0------|
  A|2----------------------|--------0---2----------|
  E|--------------------3--|0---3------------------|
    spell



  G|------- ------- -------|------- ------- -------|
  D|2---2---2---2----------|2-------4-------6------|
  A|--------------------2--|-----------------------|
  E|-----------------------|-----------------------|
    Aaaaaaaaaaaaaaaaaaaaaaaaaaaaaaaaaaaaaaaaaaahhhh



  G|------- ------- -------|------- ------- -------|
  D|7---7------------------|-----------------------|
  A|------------7-\-----3--|0----------------------|
  E|-----------------------|-----------------------|
    stay                    don't   stand   around


    6/8

  G|-------- --------|-------- --------|-------- --------|-------- --------|
  D|-----------------|-----------------|-----------------|-----------------|
  A|5--------5-------|5--------5-------|5--------5-------|------4-----6----|
  E|-----------------|-----------------|-----------------|7----------------|
                and   comes       and   stays       But   leaves      next 
                   he                he                he       the

    3/4

  G|------- ------- -------|------- ------- -------|
  D|-----------------------|--------5--------------|
  A|7---7-------7----------|7---------------2------|
  E|--------------------7--|-----------------------|
    day                                     so


  G|------- ------- -------|------- ------- -------|
  D|------------2-------5--|--------2-------5------|
  A|3---3------------------|3----------------------|
  E|-----------------------|-----------------------|
    sad


  G|------- ------- ----0--|------- ------- ----0--|
  D|------------2----------|------------2----------|
  A|4----------------------|3----------------------|
  E|-----------------------|-----------------------|
    Sometimes       she feels               so


  G|------- ------- -------|------- ------- -------|
  D|2----------------------|-----------------------|
  A|--------2--------------|-----------------------|
  E|----------------3------|0-------0--------------|
    sad                                     Every



    02:55
  G|------- ------- ------- -------|------- ------- ------- -------|
  D|-------------------------------|-------------------------------|
  A|-------------------------------|-------------------------------|
  E|3-----------3------------------|2-----------2------------------|
    day she  takes  morning bath    wets    hair
                a               she     her



  G|------- ------- ------- -------|------- ------- ------- -------|
  D|-------------------------------|-------------------------------|
  A|-------------------------------|0-----------0------------------|
  E|0-----------0------------------|-------------------------------|
    Wraps   towel       her as  she’s       for the bedroom     chair
        a       around              heading



  G|------- ------- ------- -------|------- ------- ------- -------|
  D|------------------------4------|5------------------------------|
  A|0-----------5-------7----------|--------------------0---2------|
  E|-------------------------------|------------3------------------|
        It’s    another         day
            just


  G|------- ------- ------- -------|------- ------- ------- -------|
  D|------------5------------------|-------------------------------|
  A|3------------------------------|3---5--------------------------|
  E|-------------------------------|------------3-----------3------|
    Slipping    stockings,          stepping    shoes
        into                            into



  G|------- ------- ------- -------|------- ------- ------- -------|
  D|------------5-------4---5------|7------------------------------|
  A|3------------------------------|-------------------------------|
  E|-------------------------------|-------------------------------|
    dipping the pocket  of   her
        in                      raincoat        
  


  G|------- ------- ------- -------|
  D|7---7---7---7---7---5---4------|
  A|----------------------------7--|
  E|-------------------------------|
                        Uuuuuuuhhhh



  G|------- ------- ------- -------|------- ------- ------- -------|
  D|-------------------------------|-------------------------------|
  A|5-----------3-------2---0------|--------------------0---2------|
  E|-------------------------------|3-----------3------------------|
        It's    another         day
            just


    03:21
  G|------- ----0-- ------- -------|------- ------- ------- -------|
  D|----0---2----------------------|-------------------------------|
  A|3---------------3---5---2---3--|0---2---3---0-5---0-3---2---0--|
  E|-------------------------------|-------------------------------|
            Do  do  do  do      do      it’s    another         day
                                            just


  G|------- ------- ------- -------|------- ------- ------- -------|
  D|----------------------6-9------|7---5---4---2---0--------------|
  A|----0---2---2-/-7---7-------7-7|--------------------3---2---0--|
  E|3------------------------------|-------------------------------|
            do  do do  do       do      it’s    another         day
                                            just



  G|------- ------- ------- -------|------- ------- ------- -------|
  D|------------5---------------0--|3------------------------------|
  A|--------------------2---3------|----0-------1-------2-------3--|
  E|3---3--------------------------|-------------------------------|



                                   (.
  G|------- ------- ------- -------|------- ------- ------- -------|
  D|-------------------------------|-------------------------------|
  A|3------------------------------|-------------------------------|
  E|----0--------1------2-------0--|3------------------------------|








        B  Bend
        R  Release
        /  slide up
        \  slide down
        H  hammer-on
        P  pull-off
        ~  vibrato
        +  harmonic
        x  Mute note
        . - play note like a dot in standard notation
        ^ - ties two notes together
        (.  Pause



comments
We did not receive enough feedback on this tab! Please rate:
print report bad tab
1 2 3 4 5
I want to post or [tab]
guest
You may want to rate the tab now too:
select rating
Please do not post tabs as comments. Select "correction" instead!