Oops, an error
Loading. Please wait.

Anyway bass

19 views 1 this week
no commentswrite comment
1 2 3 4 5
3 more votes to show rating
add to favorites
×
Save as Personal and add changes to this tab that will be seen only by you. Learn more ›
×
You can save this tab as Personal to edit and correct it or add notes. All changes will be seen only by you. Learn more »
launch autoscroll
font size
0
reset
guitar tuner
edit
Autoscroll
slow
fast
+/-
esc
set tempo
stop
Author
Difficulty
Intro :
G|---------------------------------|---------------------------------|
D|5--------------------------------|------------5--------------------|
A|------------7--------------------|3---------------------------5----|
E|---------------------------------|---------------------------------|

G|---------------------------------|---------------------------------|
D|5--------------------------------|---------------------------------|
A|------------7---------------2----|3--------------------------------|
E|---------------------------------|------------3--------------------|

Chorus :
G|---------------------------------|---------------------------------|
D|5--------------------------------|------------5--------------------|
A|------------7---------------2----|3---------------------------5----|
E|---------------------------------|---------------------------------|

G|---------------------------------|---------------------------------|
D|5--------------------------------|---------------------------------|
A|------------7---------------2----|3--------------------------------|
E|---------------------------------|------------3--------------------|

G|---------------------------------|---------------------------------|
D|5--------------------------------|------------5--------------------|
A|----------------------------2-2--|3---------------------------5----|
E|------------0--------------------|---------------------------------|

G|---------------------------------|---------------------------------|
D|5--------------------------------|------------5--------------------|
A|--------5---7---------------2----|3--------------------------------|
E|---------------------------------|---------------------------------|

G|------------7---|
D|--------7h9-----|
A|----------------|
E|----------------|

Bridge :
G|9-----------9---------------9----|---------------------------------|
D|---------------------------------|---------------------------------|
A|---------------------------------|7-----------7---------------7----|
E|---------------------------------|---------------------------------|

G|---------------------------------|---------------------------------|
D|4-----------4--------------------|6-----------6---------------4-6--|
A|---------------------------------|---------------------------------|
E|---------------------------------|---------------------------------|

G|---------------------------------|---------------------------------|
D|7-----------7---------------7----|9-----------9-----------10--9----|
A|---------------------------------|---------------------------------|
E|---------------------------------|---------------------------------|

Interlude :
G|--------14--------------14-------|-------14-------------14---------|
D|---------------------------------|---------------------------------|
A|12--------------12----------12---|12-----------------12------------|
E|---------------------------------|---------------------------------|

G|--------14--------------14-------|-------14------------------------|
D|---------------------------------|---------------------------------|
A|12--------------12----------12---|12-------------------------------|
E|---------------------------------|---------------------------------|

A little break

1:17
G|---------------------------------|---------------------------------|
D|---------------------------------|4---------------------------3----|
A|--------0-------2-------5--------|---------------------------------|
E|3--------------------------------|---------------------------------|

G|---------------------------------|
D|2--------------------------------|
A|---------------------------------|
E|---------------------------------|

Interlude :
G|---------------------------------|---------------------------------|
D|--------7---------------7--------|--------7---------------7--------|
A|---------------------------------|-----------------------------/---|
E|5-------------------5------------|5-------------------5------------|

G|--------14--------------14-------|-------14------------------------|
D|---------------------------------|---------------------------------|
A|12------------------12-----------|12-----------------12------------|
E|---------------------------------|---------------------------------|

Chorus :
G|---------------------------------|---------------------------------|
D|5-------5------------------------|------------5--------------------|
A|------------7---------------2----|3---------------------------5----|
E|---------------------------------|---------------------------------|

G|---------------------------------|---------------------------------|
D|5--------------------------------|---------------------------------|
A|--------5---7---------------2----|3-------5-------------------5----|
E|---------------------------------|------------3-----------3--------|

G|---------------------------------|---------------------------------|
D|5-------5------------------------|------------5--------------------|
A|------------7---------------2----|3-------------------7---5--------|
E|---------------------------------|---------------------------------|

G|---------------------------------|---------------------------------|
D|5-------5---------------2--------|---------------------------------|
A|------------7---------------2----|3-------3------------------------|
E|---------------------------------|------------3-----------3--------|

G|---------------------------------|---------------------------------|
D|5-------5---------------2--------|---------------------------------|
A|------------7---------------2----|3-------3---------------7---5----|
E|---------------------------------|------------3--------------------|

G|---------------------------------|---------------------------------|
D|5-------5------------------------|---------------------------------|
A|------------7---------------2-2--|3-------5-------------------5----|
E|---------------------------------|------------3--------------------|

G|---------------------------------|---------------------------------|
D|5-------5------------------------|------------5---5-------5--------|
A|------------7---------------7----|3-------------------7-------7----|
E|---------------------------------|---------------------------------|

G|---------------------------------|---------------------------------|
D|5-------5------------------------|---------------------------------|
A|------------7---------------2----|3--------------------------------|
E|---------------------------------|------------3--------------------|

G|------------7---|
D|--------7h9-----|
A|----------------|
E|----------------|

Bridge :
G|9-----------9---------------9----|---------------------------------|
D|---------------------------------|---------------------------------|
A|---------------------------------|7-----------7---------------7----|
E|---------------------------------|---------------------------------|

G|---------------------------------|---------------------------------|
D|4-----------4---------------4----|6-----------6-------6---6--------|
A|---------------------------------|---------------------------------|
E|---------------------------------|---------------------------------|

G|---------------------------------|---------------------------------|
D|7-----------7---------------7----|9-----------9-----------10--9----|
A|---------------------------------|---------------------------------|
E|---------------------------------|---------------------------------|

Interlude :
G|--------14--------------14-------|-------14-------------14---------|
D|---------------------------------|---------------------------------|
A|12--------------12--12-----------|12-------------12--12------------|
E|---------------------------------|---------------------------------|

G|--------14--------------14-------|-------14-\----------------------|
D|---------------------------------|---------------7-----------------|
A|12--------------12--12-----------|12-------------------------------|
E|---------------------------------|---------------------------------|

Bridge :
G|---------------------------------|---------------------------------|
D|---------------------------------|4-----------4---------------4----|
A|5-----------5-----------5---7----|---------------------------------|
E|---------------------------------|---------------------------------|

G|4-----------4--------------------|
D|---------------------------------|
A|---------------------------------|
E|---------------------------------|

G|---------------------------------|---------------------------------|
D|---------------------------------|4-----------4---4-----------3----|
A|--------0-------2-------5--------|---------------------------------|
E|3--------------------------------|---------------------------------|

G|---------------------------------|
D|2-----------2--------------------|
A|---------------------------------|
E|---------------------------------|

Interlude :
G|---------------------------------|---------------------------------|
D|--------7---------------7--------|--------7---------------7--------|
A|---------------------------------|------------------------------/--|
E|5-------------------5------------|5-------------------5------------|

G|--------14--------------14-------|-------14------14------14--------|
D|---------------------------------|---------------------------------|
A|12------------------12-----------|12-------------------------------|
E|---------------------------------|---------------------------------|

Bridge :
G|---------------------------------|---------------------------------|
D|---------------------------------|4-----------4---4---4---7---4----|
A|5-----------5-----------5---7----|---------------------------------|
E|---------------------------------|---------------------------------|

G|---------------------------------|
D|------------4--------------------|
A|2-------------------2------------|
E|---------------------------------|

G|---------------------------------|---------------------------------|
D|---------------------------------|4-----------4---4-----------3----|
A|--------0-------2-------5--------|---------------------------------|
E|3--------------------------------|---------------------------------|

G|---------------------------------|---------------------------------|
D|2-----------2-----------2--------|---------------------------------|
A|---------------------------------|5--------------------------------|
E|---------------------------------|---------------------------------|
Suggest correction
Creating personal tab
Creating personal tab
You can edit any tab online and save it as your Personal.

You can edit, replace or remove any tab part or add personal notes – all changes will be seen only by you.

Personal tabs can be accessed anytime from any device, even offline.
Learn more »
Give kudos to tab author, rate the tab!
1 2 3 4 5
comments
print report bad tab
guest
You may want to rate the tab now too:
select rating
Wanna post a correction for this tab? Suggest correction