Oops, an error
Loading. Please wait.

Back Seat Of My Car bass

133 views 1 this week
no commentswrite comment
1 2 3 4 5
3 more votes to show rating
add to favorites
×
Save as Personal and add changes to this tab that will be seen only by you. Learn more ›
×
You can save this tab as Personal to edit and correct it or add notes. All changes will be seen only by you. Learn more »
launch autoscroll
font size
0
reset
guitar tuner
edit
Autoscroll
slow
fast
+/-
esc
set tempo
stop
Author
Difficulty
Intro :
G|---------------------------------|---------------------------------|
D|---------------------------------|---------------------------------|
A|3--------------------------------|---------------------------------|
E|---------------------------------|---------------------------------|

Verse 1 :
G|---------------------------------|---------------------------------|
D|----------------3----------------|------------1---3-------3--------|
A|3--------------------------------|3--------------------------------|
E|---------------------------------|---------------------------------|

G|---------------------------------|---------------------------------|
D|---------------------------------|---------------------------------|
A|1-----------1-------3---5--------|6---------------5----------------|
E|---------------------------------|---------------------------------|

G|---------------------------------|---------------------------------|
D|----------------------------5----|------------1---3----------------|
A|3--------------------------------|3--------------------------------|
E|---------------------------------|---------------------------------|

G|---------------------------------|
D|------------5---3-------3--------|
A|3---------6----------------------|
E|---------------------------------|

Chorus :
G|---------------------------------|---------------------------------|
D|8---8-------8-------5---3---5----|8---8---8---8-------5---3---3----|
A|---------------------------------|---------------------------------|
E|---------------------------------|---------------------------------|

G|---------------------------------|---------------------------------|
D|8---8-8-8---8-------5---3---5----|8---8---8---8--------------------|
A|---------------------------------|---------------------------------|
E|---------------------------------|---------------------------------|

Verse 2 :
G|---------------------------------|---------------------------------|
D|------------1---3-------3--------|------------5---3----------------|
A|3--------------------------------|3---------6----------------------|
E|---------------------------------|------------------------1--------|

G|---------------------------------|---------------------------------|
D|---------------------------------|---------------------------------|
A|1---1-------1-------3---5--------|6-----------6---5-----------5----|
E|---------------------------------|---------------------------------|

G|---------------------------------|---------------------------------|
D|------------5-----------5---\----|------------1---3----------------|
A|3---------------3----------------|3--------------------------------|
E|---------------------------------|---------------------------------|

G|---------------------------------|
D|--------1-------3-------3--------|
A|3--------------------------------|
E|---------------------------------|

Chorus :
G|---------------------------------|---------------------------------|
D|8---8---8---8-------5---3---5----|8---8---8---8-------5---3---3----|
A|---------------------------------|---------------------------------|
E|---------------------------------|---------------------------------|

G|---------------------------------|---------------------------------|
D|8---8-8-8---8-------5---3---5----|8---8---8---8--------------------|
A|---------------------------------|---------------------------------|
E|---------------------------------|---------------------------------|

Interlude :
G|---------------------------------|---------------------------------|
D|----------------3----------------|------------1--------------------|
A|3--------------------------------|3--------------------------------|
E|---------------------------------|----------------1-------1--------|

G|---------------------------------|---------------------------------|
D|------------5---3-------3--------|------------1---3----------------|
A|3---------6----------------------|3---------------------------0----|
E|---------------------------------|---------------------------------|

G|---------------------------------|---------------------------------|
D|---------------------------------|---------------------------------|
A|1---1-------1-----------5--------|6-------6---6---5-----------5----|
E|---------------------------------|---------------------------------|

G|---------------------------------|
D|--------5-------5-------5--------|
A|3---3----------------------------|
E|---------------------------------|

Verse 3 :
G|---------------------------------|---------------------------------|
D|------------1---3----------------|------------1---3---3---3---3----|
A|3--------------------------------|3--------------------------------|
E|---------------------------------|---------------------------------|

Chorus :
G|---------------------------------|---------------------------------|
D|8---8---8---8-------5---3---5----|8---8---8---8-------5---3---3----|
A|---------------------------------|---------------------------------|
E|---------------------------------|---------------------------------|

G|---------------------------------|---------------------------------|
D|8---8---8---8---------5-3---5----|8---8---8---8-------8---\--------|
A|---------------------------------|---------------------------------|
E|---------------------------------|---------------------------------|

Verse 4 :
G|---------------------------------|---------------------------------|
D|------------1---3----------------|--------1-------3----------------|
A|3--------------------------------|3--------------------------------|
E|---------------------------------|------------------------1--------|

G|---------------------------------|---------------------------------|
D|8---8-------8--------------------|---------------------------------|
A|--------------------3---5--------|6-----------6---5-----------5----|
E|---------------------------------|---------------------------------|

G|---------------------------------|
D|---------------------------------|
A|3-----------3-------3-------5----|
E|---------------------------------|

Chorus :
G|---------------------------------|---------------------------------|
D|---------------------------------|---------------------------------|
A|6---6-------6---5-----------5----|3---3-------3---3-------3---5----|
E|---------------------------------|---------------------------------|

G|---------------------------------|---------------------------------|
D|---------------------------------|--------5---------------5---\----|
A|6---6-------6---5-----------5----|3---3-----------3----------------|
E|---------------------------------|---------------------------------|

Verse 5 :
G|---------------------------------|---------------------------------|
D|----------------3----------------|------------------------10--\----|
A|3--------------------------------|---------------------------------|
E|---------------------------------|---------------------------------|

Chorus :
G|---------------------------------|---------------------------------|
D|8---8---8---8-------5---3---5----|8---8---8---8-------5---3---3----|
A|---------------------------------|---------------------------------|
E|---------------------------------|---------------------------------|

G|---------------------------------|---------------------------------|
D|8---8---8---8-------5---3---5----|8---8---8---8-------5---3---3----|
A|---------------------------------|---------------------------------|
E|---------------------------------|---------------------------------|

G|---------------------------------|---------------------------------|
D|8---8---8---8-------5---3---5----|8---8---8---8-------5---3---3----|
A|---------------------------------|---------------------------------|
E|---------------------------------|---------------------------------|

G|---------------------------------|---------------------------------|
D|8---8---8---8-------5---3---5----|8---8---8---8-------5---3---3----|
A|---------------------------------|---------------------------------|
E|---------------------------------|---------------------------------|

G|---------------------------------|---------------------------------|
D|8---8---8---8-------5---3---5----|8---8---8---8-------5---3---3----|
A|---------------------------------|---------------------------------|
E|---------------------------------|---------------------------------|

G|---------------------------------|---------------------------------|
D|8---8---8---8-------5---3---5----|8--------------------------------|
A|---------------------------------|---------------------------------|
E|---------------------------------|---------------------------------|

Interlude :
G|---------------------------------|---------------------------------|
D|------------1---3----------------|--------1-------3----------------|
A|3--------------------------------|3--------------------------------|
E|---------------------------------|------------------------1--------|

G|---------------------------------|
D|8---8-------8--------------------|
A|--------------------3---5--------|
E|---------------------------------|

Chorus :
G|---------------------------------|---------------------------------|
D|---------------------------------|---------------------------------|
A|6-----------6---5-----------5----|3---3-------3---3-------3---5----|
E|---------------------------------|---------------------------------|

G|---------------------------------|---------------------------------|
D|---------------------------------|---------------------------------|
A|6-----------6---5-----------5----|3---3-------3---3-------3---5----|
E|---------------------------------|---------------------------------|

G|---------------------------------|---------------------------------|
D|---------------------------------|---------------------------------|
A|6-----------6---5-----------5----|3---3-------3---3-------3---5----|
E|---------------------------------|---------------------------------|

G|---------------------------------|---------------------------------|
D|---------------------------------|---------------------------------|
A|6-----------6---5-----------5----|3---3-------3---3-------3---5----|
E|---------------------------------|---------------------------------|

G|---------------------------------|---------------------------------|
D|---------------------------------|----------------------------3----|
A|6-----------6---5-----------5----|3---3-------3---3-------3--------|
E|---------------------------------|---------------------------------|

G|---------------------------------|---------------------------------|
D|---------------------------------|---------------------------------|
A|6---------------5----------------|3-----------\---1----------------|
E|---------------------------------|---------------------------------|

G|---------------------------------|---------------------------------|
D|---------------------------------|---------------------------------|
A|---------------------------------|----------------0---3---4--------|
E|4---------------3----------------|1---1---4-------------------6----|

Outro :
G|---------------------------------|---------------------------------|
D|---------------------------------|---------------------------------|
A|6---------------5----------------|3--------------------------------|
E|---------------------------------|----------------6----------------|

G|---------------------------------|---------------------------------|
D|---------------------------------|---------------------------------|
A|---------------------------------|----------------6-6---6-6---6----|
E|4---------------3----------------|1--------------------------------|

G|---------------------------------|---------------------------------|
D|---------------------------------|---------------------------------|
A|4---------------3----------------|---------------------------------|
E|---------------------------------|6---------------4----------------|

G|---------------------------------|---------------------------------|
D|---------------------------------|---------------------------------|
A|------------------------1--------|6--------------------------------|
E|3---------------1----------------|---------------------------------|

G|---------------------------------|
D|---------------------------------|
A|---------------------------------|
E|---------------------------------|

Bonus : (End)
G|---------------------------------|---------------------------------|
D|8---8---8---8---8---5-------5----|8---8---8---8---8---5-------5----|
A|------------------------8--------|------------------------8--------|
E|---------------------------------|---------------------------------|

G|---------------------------------|---------------------------------|
D|8---8---8---8-------5-------5----|8---8---8---8--------------------|
A|------------------------8--------|----------------5---6---7---8----|
E|---------------------------------|---------------------------------|

G|---------------------------------|---------------------------------|
D|8-------8---8---8---5-------5----|8---8---8---8--------------------|
A|------------------------8--------|----------------5---6---7---8----|
E|---------------------------------|---------------------------------|

G|---------------------------------|---------------------------------|
D|6-------6-------6-------6--------|---------------------------------|
A|----8-------8-------8-------8----|---------------------------------|
E|---------------------------------|---------------------------------|

            
            
Suggest correction
Creating personal tab
Creating personal tab
You can edit any tab online and save it as your Personal.

You can edit, replace or remove any tab part or add personal notes – all changes will be seen only by you.

Personal tabs can be accessed anytime from any device, even offline.
Learn more »
Give kudos to tab author, rate the tab!
1 2 3 4 5
comments
print report bad tab
guest
You may want to rate the tab now too:
select rating
Wanna post a correction for this tab? Suggest correction