Oops, an error
Loading. Please wait.

Ballroom Dancing Bass Tab

40 views 3 this week
no commentswrite comment
1 2 3 4 5
2 more votes to show rating
add to favorites
launch autoscroll
font size
0
reset
guitar tuner
Autoscroll
slow
fast
+/-
esc
set tempo
stop
Help us to improve Ultimate-Guitar.com Take our survey!
×
Intro
G|---------------------------------|---------------------------------|
D|---------------------------------|---------------------------------|
A|---------------------------------|---------------------------------|
E|---------------------------------|---------------------------------|

0:03
G|---------------------------------|---------------------------------|
D|9---9----------------------------|9---9----------------------------|
A|----------------9---9------------|----------------9---9------------|
E|---------------------------------|---------------------------------|

Verse 1 :
G|---------------------------------|---------------------------------|
D|9---9----------------------------|9---9----------------------------|
A|----------------9---9------------|----------------9---9------------|
E|---------------------------------|---------------------------------|

G|---------------------------------|---------------------------------|
D|9---9----------------------------|9---9----------------------------|
A|----------------9---9------------|----------------9---9------------|
E|---------------------------------|---------------------------------|

G|---------------------------------|---------------------------------|
D|---------------------------------|---------------------------------|
A|---------------------------------|---------------------------------|
E|0---0-----------7---7------------|0---0-----------7---7------------|

G|---------------------------------|---------------------------------|
D|9---9----------------------------|9---9----------------------------|
A|----------------9---9------------|----------------9---9------------|
E|---------------------------------|---------------------------------|

G|---------------------------------|---------------------------------|
D|9---9----------------------------|---------------------------------|
A|----------------9---9------------|---------------------------------|
E|---------------------------------|0---0-----------7---7------------|

G|---------------------------------|---------------------------------|
D|---------------------------------|---------------------------------|
A|---------------------------------|---------------------------------|
E|0---0-----------7---7------------|0---0-----------7---7------------|

G|---------------------------------|---------------------------------|
D|6---6----------------------------|---------------------------------|
A|----------------6---6------------|---------------------------------|
E|---------------------------------|0---0-----------7---7------------|

G|---------------------------------|---------------------------------|
D|9---9----------------------------|9---9----------------------------|
A|----------------9---9------------|----------------9---9------------|
E|---------------------------------|---------------------------------|

Chorus :
G|---------------------------------|---------------------------------|
D|9---------------6----------------|---------------------------------|
A|---------------------------------|9--------------------------------|
E|---------------------------------|--------7------------------------|

G|---------------------------------|---------------------------------|
D|---------------------------------|---------------------------------|
A|---------------------------------|------------------------0--------|
E|0---0-----------7---7------------|0---0-------0---4----------------|

G|---------------------------------|---------------------------------|
D|---------------------------------|---------------------------------|
A|2---2----------------------------|2---2----------------------------|
E|----------------2---2------------|----------------2---2------------|

G|---------------------------------|---------------------------------|
D|---------------------------------|---------------------------------|
A|---------------------------------|------------------------0--------|
E|0---0-----------7---7------------|0-----------4--------------------|

G|---------------------------------|---------------------------------|
D|---------------------------------|---------------------------------|
A|2---2----------------------------|2---2----------------------------|
E|----------------2---2------------|----------------2---2------------|

G|---------------------------------|---------------------------------|
D|---------------------------------|----------------6-------7--------|
A|---------------------------------|7-----------7--------------------|
E|0---0-----------7---7------------|---------------------------------|

G|---------------------------------|---------------------------------|
D|9---9----------------------------|9---9----------------------------|
A|----------------9---9------------|----------------9---9------------|
E|---------------------------------|---------------------------------|

G|---------------------------------|---------------------------------|
D|----------------6-------7--------|7---7----------------------------|
A|7---7-------7--------------------|----------------7---7------------|
E|---------------------------------|---------------------------------|

G|---------------------------------|---------------------------------|
D|9---9----------------------------|9---9----------------------------|
A|----------------9---9------------|----------------9---9------------|
E|---------------------------------|---------------------------------|

G|---------------------------------|---------------------------------|
D|9---9---9---9---9---9---9---9----|9---9---9------------------------|
A|---------------------------------|---------------------------------|
E|---------------------------------|----------------7-/-10--7--------|

Verse 2 :
G|---------------------------------|---------------------------------|
D|9---9----------------------------|9---9----------------------------|
A|----------------9---9------------|----------------9---9------------|
E|---------------------------------|---------------------------------|

G|---------------------------------|---------------------------------|
D|9---9----------------------------|9---9----------------------------|
A|----------------9---9------------|----------------9---9------------|
E|---------------------------------|---------------------------------|

G|---------------------------------|---------------------------------|
D|---------------------------------|---------------------------------|
A|---------------------------------|---------------------------------|
E|0---0-----------7---7------------|0---0-----------7---7------------|

G|---------------------------------|---------------------------------|
D|9---9----------------------------|9---9----------------------------|
A|----------------9---9------------|----------------9---9------------|
E|---------------------------------|---------------------------------|

G|---------------------------------|---------------------------------|
D|9---9-------9--------------------|---------------------------------|
A|----------------9----------------|---------------------------------|
E|------------------------0--------|0---0-----------7---7------------|

G|---------------------------------|---------------------------------|
D|---------------------------------|---------------------------------|
A|---------------------------------|------------------------7--------|
E|0---0-----------7---7------------|0---0-----------7----------------|

G|---------------------------------|---------------------------------|
D|6---6----------------------------|---------------------------------|
A|----------------6---6------------|---------------------------------|
E|---------------------------------|0---0-----------7---7------------|

G|---------------------------------|---------------------------------|
D|9---9----------------------------|9---9-------9--------------------|
A|----------------9---9------------|----------------9-------9--------|
E|---------------------------------|---------------------------------|

Chorus :
G|---------------------------------|---------------------------------|
D|9---------------6----------------|---------------------------------|
A|---------------------------------|9--------------------------------|
E|---------------------------------|--------7------------------------|

G|---------------------------------|---------------------------------|
D|---------------------------------|---------------------------------|
A|7---7----------------------------|7---7-------------------0--------|
E|----------------7---7------------|------------0---4----------------|

G|---------------------------------|---------------------------------|
D|9---9----------------------------|9---9----------------------------|
A|----------------9---9------------|----------------9---9------------|
E|---------------------------------|---------------------------------|

G|---------------------------------|---------------------------------|
D|---------------------------------|---------------------------------|
A|---------------------------------|------------------------0--------|
E|0---0-----------7---7------------|0-----------4--------------------|

G|---------------------------------|---------------------------------|
D|9---9----------------------------|9---9----------------------------|
A|----------------9---9------------|----------------9---9------------|
E|---------------------------------|---------------------------------|

G|---------------------------------|---------------------------------|
D|---------------------------------|------------6-----------7--------|
A|---------------------------------|7---7---7------------------------|
E|0---0-----------7---7------------|---------------------------------|

G|---------------------------------|---------------------------------|
D|9---9----------------------------|9---9----------------------------|
A|----------------9---9------------|----------------9---9------------|
E|---------------------------------|---------------------------------|

G|---------------------------------|---------------------------------|
D|----------------6-------7--------|7---7----------------------------|
A|7---7-------7--------------------|----------------7---7---7---7----|
E|---------------------------------|---------------------------------|

Interlude :
G|---------------------------------|---------------------------------|
D|9---9----------------------------|9---9----------------------------|
A|----------------9---9------------|----------------9---9------------|
E|---------------------------------|---------------------------------|

G|---------------------------------|---------------------------------|
D|9---9---------------9------------|9---9---------------9-------7----|
A|------------------------9--------|------------------------9--------|
E|---------------------------------|---------------------------------|

Solo :
G|---------------------------------|---------------------------------|
D|9---9-------9--------------------|9---9-----------9---9------------|
A|----------------9---9------------|---------------------------------|
E|---------------------------------|----------------------------7----|

G|---------------------------------|---------------------------------|
D|---------------------------------|---------------------------------|
A|7---7-----------7----------------|7---7-------------------0--------|
E|--------------------7---7--------|------------0---4----------------|

G|---------------------------------|---------------------------------|
D|---------------------------------|---------------------------------|
A|2---2-----------2----------------|2---2-------2---2---2-------5----|
E|--------------------2-------2----|---------------------------------|

G|---------------------------------|---------------------------------|
D|---------------------------------|---------------------------------|
A|7---7-----------7----------------|------------------------0--------|
E|--------------------7-------7----|0-----------4--------------------|

G|---------------------------------|---------------------------------|
D|---------------------------------|---------------------------------|
A|2---2-------2---2---2-------2----|2---2-------2---2-----------5----|
E|---------------------------------|---------------------------------|

G|---------------------------------|---------------------------------|
D|---------------------------------|----------------6-------7--------|
A|7---7-----------7---7-------0----|7---7-------7--------------------|
E|---------------------------------|---------------------------------|

G|---------------------------------|---------------------------------|
D|9---9---9---9---9---9---9--------|9---9---9-------9-----------7----|
A|---------------------------------|--------------------9------------|
E|---------------------------------|---------------------------------|

G|---------------------------------|---------------------------------|
D|10--------------10--10--10--10---|12--12------12----------10-------|
A|---------------------------------|----------------12---------------|
E|---------------------------------|---------------------------------|

G|---------------------------------|---------------------------------|
D|9---9----------------------------|9---9----------------------------|
A|----------------9---9------------|----------------9---9------------|
E|---------------------------------|---------------------------------|

G|---------------------------------|---------------------------------|
D|9---9-----------9-----------9----|--------9---9--------------------|
A|--------------------9------------|9-------------------9---9--------|
E|---------------------------------|---------------------------------|

Interlude :
G|---------------------------------|---------------------------------|
D|---------------------------------|0--------------------------------|
A|0---2----------------------------|----2----------------------------|
E|---------------------------------|---------------------------------|

G|---------------------------------|---------------------------------|
D|---------------------------------|---------------------------------|
A|0---2----------------------------|---------------------------------|
E|---------------------------------|---------------------------------|

G|---------------------------------|---------------------------------|
D|---------------------------------|0--------------------------------|
A|0---2----------------------------|----2----------------------------|
E|---------------------------------|---------------------------------|

G|---------------------------------|---------------------------------|
D|---------------------------------|---------------------------------|
A|0---2----------------------------|---------------------------------|
E|---------------------------------|---------------------------------|

G|---------------------------------|---------------------------------|
D|---------------------------------|0--------------------------------|
A|0---2----------------------------|----2----------------------------|
E|---------------------------------|---------------------------------|

G|---------------------------------|---------------------------------|
D|---------------------------------|---------------------------------|
A|0---2----------------------------|---------------------------------|
E|---------------------------------|---------------------------------|

G|---------------------------------|---------------------------------|
D|---------------------------------|0--------------------------------|
A|0---2----------------------------|----2----------------------------|
E|---------------------------------|---------------------------------|

G|---------------------------------|---------------------------------|
D|---------------------------------|---------------------------------| * = let it ring
A|0---2*---------------------------|---------------------------------|
E|---------------------------------|---------------------------------|

G|---------------------------------|---------------------------------|
D|---------------------------------|---------------------------------|
A|---------------------------------|----------------6*---------------|
E|7*-------------------------------|---------------------------------|

G|---------------------------------|9-h-11----------9-----------7----|
D|---------------------------------|---------------------------------|
A|7*-------------------------------|---------------------------------|
E|---------------------------------|---------------------------------|

G|---------------------------------|---------------------------------|
D|---------------------------------|---------------------------------|
A|---------------------------------|---------------------------------|
E|7-----------------------7--------|7---------------5----------------|

G|---------------------------------|9-h-11--9-------------------7----|
D|---------------------------------|---------------------------------|
A|7*-------------------------------|---------------------------------|
E|---------------------------------|---------------------------------|

G|---------------------------------|---------------------------------|
D|---------------------------------|9---9---9---9---9---9---9---9----|
A|2--------------------------------|---------------------------------|
E|---------------------------------|---------------------------------|

G|---------------------------------|
D|9---9---9---9---9---9---9---9----|
A|---------------------------------|
E|---------------------------------|

Verse 3 :
G|---------------------------------|---------------------------------|
D|9---9----------------------------|9---9----------------------------|
A|----------------9---9------------|----------------9---9------------|
E|---------------------------------|---------------------------------|

G|---------------------------------|---------------------------------|
D|9---9----------------------------|9---9----------------------------|
A|----------------9---9------------|----------------9---9------------|
E|---------------------------------|---------------------------------|

G|---------------------------------|---------------------------------|
D|---------------------------------|---------------------------------|
A|---------------------------------|---------------------------------|
E|0---0-----------7---7------------|0---0-----------7---7------------|

G|---------------------------------|---------------------------------|
D|9---9----------------------------|9---9----------------------------|
A|----------------9---9------------|----------------9---9------------|
E|---------------------------------|---------------------------------|

G|---------------------------------|---------------------------------|
D|9---9----------------------------|---------------------------------|
A|----------------9---9------------|---------------------------------|
E|---------------------------------|0---0-----------7---7------------|

G|---------------------------------|---------------------------------|
D|---------------------------------|---------------------------------|
A|---------------------------------|----------------7-----------7----|
E|0---0-----------7---7------------|0---0---------------7------------|

G|---------------------------------|---------------------------------|
D|6---6----------------------------|---------------------------------|
A|----------------6---6------------|---------------------------------|
E|---------------------------------|0---0-----------7---7------------|

G|---------------------------------|---------------------------------|
D|9---9----------------------------|9---9-------9--------------------|
A|----------------9---9------------|----------------9-------9--------|
E|---------------------------------|---------------------------------|

Chorus :
G|---------------------------------|---------------------------------|
D|9---------------6----------------|---------------------------------|
A|---------------------------------|9--------------------------------|
E|---------------------------------|--------7------------------------|

G|---------------------------------|---------------------------------|
D|---------------------------------|---------------------------------|
A|7---7----------------------------|7---7-------------------0--------|
E|----------------7---7------------|------------0---4----------------|

G|---------------------------------|---------------------------------|
D|9---9----------------------------|9---9----------------------------|
A|----------------9---9------------|----------------9---9------------|
E|---------------------------------|---------------------------------|

G|---------------------------------|---------------------------------|
D|---------------------------------|---------------------------------|
A|---------------------------------|------------------------0--------|
E|0---0-----------7---7------------|0-----------4--------------------|

G|---------------------------------|---------------------------------|
D|9---9----------------------------|9---9----------------------------|
A|----------------9---9------------|----------------9---9------------|
E|---------------------------------|---------------------------------|

G|---------------------------------|---------------------------------|
D|---------------------------------|------------6-----------7--------|
A|---------------------------------|7---7---7------------------------|
E|0---0-----------7---7------------|---------------------------------|

G|---------------------------------|---------------------------------|
D|9---9----------------------------|9---9----------------------------|
A|----------------9---9------------|----------------9---9------------|
E|---------------------------------|---------------------------------|

G|---------------------------------|---------------------------------|
D|----------------6-------7--------|7---7----------------------------|
A|7---7-------7--------------------|----------------7---7------------|
E|---------------------------------|---------------------------------|

G|---------------------------------|---------------------------------|
D|9---9----------------------------|9---9----------------------------|
A|----------------9---9------------|----------------9---9------------|
E|---------------------------------|---------------------------------|

Outro :
G|---------------------------------|---------------------------------|
D|---------------------------------|---------------------------------|
A|3---------------3-------5--------|5---5-----------5---3-------2----|
E|---------------------------------|---------------------------------|

G|---------------------------------|---------------------------------|
D|---------------------------------|---------------------------------|
A|2-/-7----------------------------|---------------------------------|
E|---------------------------------|---------------------------------|
Suggest correction
Give kudos to tab author, rate the tab!
1 2 3 4 5
comments
print report bad tab
guest
You may want to rate the tab now too:
select rating
Wanna post a correction for this tab? Suggest correction