Oops, an error
Loading. Please wait.
We have Chord Pro version of Band On The Run.
It's the closest thing you can get to the original song and it has interactive parts. Check out the tab »
×
19 views 3 this week
no commentswrite comment
1 2 3 4 5
3 more votes to show rating
add to favorites
×
Save as Personal and add changes to this tab that will be seen only by you. Learn more ›
×
You can save this tab as Personal to edit and correct it or add notes. All changes will be seen only by you. Learn more »
launch autoscroll
font size
0
reset
guitar tuner
edit
Autoscroll
slow
fast
+/-
esc
set tempo
stop
Hey Everybody, this is my first tab so let me know what you think! This tab is the exact notes that Sir Paul
plays for the live version of 'Band On The Run' at the Glastonbury Festival in 2004. Enjoy!


[Intro]
G|--------------------------------/7h97---------------------------------------------------------|
D|--------------------------------------7h97--4h5-5--55-----------------------------------------|
A|5-55--5-55-------------2-345-55----------------------55----------5-55-------------5--55-------|
E|-----5-----2-3-33-33-5---------------------------------7\3-333-5------2-3---33--5-------2-3-33|

[Verse 1 - 1st Movement]

G|------------------------------------------------------------------------------------------------|
D|------------------------------------------------------------------------------------------------|
A|5-55--5-55-------------------5-55--55-55-------------------5-55-----------5-55----------5-55----|
E|-----------2-3-33--33--33-5--------------2-3-33--33--333-5------2-3-33-5-------2-3-33-5------2-3|
  "Stuck inside these four walls..."


[2nd Movement Riff]
G|------------------------------------------------------------------------------|
D|------------------------------------------------------------------------------|
A|--------------3-5-5-55-5----/7---------------3-5-5555-----/7------------------|
E|5--5----0-3-5------------5-8--8--55555-0-3-5----------5-8---8--5-5-55555-0-3-5|


[Synth Added]
G|-------------------------------------------------------------------------------|
D|-------------------------------------------------------------------------------|
A|--------------3-5-5-55-5----/7---------------3-5-5555-----/7-------------------|
E|55555----0-3-5------------5-8--8--55555-0-3-5----------5-8---8--5-5-55555-0-3-5|

[2nd Movement - Verse 1]
G|------------------------------------------------------------------------------------------|
D|------------------------------------------------------------------------------------------|
A|--------------3-5-5-55-5----/7---------------3-5-5555-----/7------------------------------|
E|55555----0-3-5------------5-8--8--55555-0-3-5----------5-8---8--5-5-55555--0-3-5-555555555|
  "If I ever get out of here..."

[3rd Movement Transition]

G|---------------------------------------------------------|
D|------------5----------------------5---------------------|
A|-----3-5-/7---5-5-3---------3-5-/7---5-5-3-------3------3|
E|3-5--------------------3-5-------------------3-5----3-5--|

[3rd Movement - Verse 1]

G|----------------------------------------------------------------------------------------------------|
D|-------------------------------------------------------------------2--------------------------------|
A|3-33------------3-33---3-33---------------------------33-------------3-2-0---0----------3-33--------|
E|-----1-11--1-11-------------1-11--1-11--10-00-013--33----55--3--01-------------3--1-11-------1--1--1|
  "Well the rain exploded..."                     (Bridge)->

[Chorus 1]

G|----------------------------------------------------------------------------------|
D|----------------------------------------------------------------------------------|
A|3--3-------3--3-------3----------3--------3-----------3----------3---------3------|
E|----1--33------1--35----1--1-3-5----1-1-3----1-1-3-3----1-1-1-3----1-1-3-----1-1-3|
  "Band On The Run!!!..."

[3rd Movement - Verse 2]

G|----------------------------------------------------------------------------------------------------|
D|-------------------------------------------------------------------2--------------------------------|
A|3-33------------3-33---3-33---------------------------33-------------3-2-0---0----------3-33--------|
E|-----1-11--1-11-------------1-11--1-11--0-0-0-013--33----55--3--01-------------3--1-11-------1--1--1|
  "Well the undertaker..."

[Chorus 2 - Pre-Chorus]

G|-----------------------------------------|
D|-----------------------------------------|
A|3--3-------3--3-------3----------3-------|
E|----1--33------1--35----1--1-3-5----1-1-3|
  "Band On The Run!!!..."

[Bridge]

G|-------------------5-4---2-------------------------------------|
D|----------------2----------------------------------------------|
A|--------3-------------------------------2--33------------------|
E|0---3-------------------------\1--3--5--------55--33--5\1--3--5|

[Chorus 2]

G|--------------------------------------------------------------------------------|
D|--------------------------------------------------------------------------------|
A|3---------3---------3---------3----------3--------3----------3--------3---------|
E|----1-1-------1-1-------1-1------1-1-3------1-1-------1-1-3-----1-1------1-1-1-3|
 "Band On The Run!!!..."

[3rd Movement - Verse 3]

G|---------------------------------------------------------------|
D|------3-33--3-33-----------------------------------------------|
A|3-33--------------3-33---3-33----------------------------------|
E|-------------------------------1-11---1--1111111--00000-013--33|
  "Well the night was cloudy..."
 

[Chorus 3 - Pre-Chorus]

G|-------------------------------------------------------------------------------------|
D|-------------2-----------------------------------------------------------------------|
A|33-------------3-2-0--00-------------------------------------------------------------|
E|---55--3--01--------------3--1--1------/8---8-----------------\1--3--5---------------|
                               ^          ^                     "Was searching evermore..."
                               |        "Who held a grudge..."
                              "And the county judge..."
[Chorus 3]

G|--------------------------------------------------------------------------------|
D|--------------------------------------------------------------------------------|
A|3---------3---------3---------3----------3--------3----------3--------3---------|
E|---01-135----1-3------11-33------11-35-----1-1-3-----11-33-----1-1-3-----11-1-3-|
 "Band On The Run!!!..."

[Outro]

G|-----------|
D|-----------|
A|----------3|
E|0----3-----|

Song Structure:

Movement 1-
 - Intro
 - Verse 1
Movement 2-
 -Instrumental Interlude
 -Instrumental Interlude + Synth
 -Verse 1
 -Transition / Bridge to Movement 3
Movement 3-
 -Acoustic Guitar Riff
 -Verse 1
 -Pre-Chorus
 -Chorus 1
 -Verse 2
 -Pre-Chorus
 -Chorus 2
 -Bridge
 -Chorus 2
 -Verse 3
 -Pre-Chorus
 -Chorus 3
 -Outro  


************************************

| h  Hammer-on
| /  Slide up
| \  Slide down

************************************

            
            
Suggest correction
Creating personal tab
Creating personal tab
You can edit any tab online and save it as your Personal.

You can edit, replace or remove any tab part or add personal notes – all changes will be seen only by you.

Personal tabs can be accessed anytime from any device, even offline.
Learn more »
Give kudos to tab author, rate the tab!
1 2 3 4 5
comments
print report bad tab
guest
You may want to rate the tab now too:
select rating
Wanna post a correction for this tab? Suggest correction