Oops, an error
Loading. Please wait.

Band On The Run Chords

version 3
version 3

Whole song

Interactive

50,022 views 411 this week
6 commentsread comments
1 2 3 4 5
excellent!
x 45
add to favorites
launch autoscroll
font size
0
reset
transpose
0
reset
- display chords -
guitar tuner
Tab Pro tools
  • play this tab
  • loop segment
  • change instrument
  • show fretboard
  • metronome
Autoscroll
slow
fast
+/-
esc
set tempo
stop
Contributor
Difficulty
intermediate
Artist: Paul McCartney and Wings
Album: Band On the Run
Song: Band On the Run
Written By: Paul McCartney
Tablature By: Cory N. Emm


e-----10/12/10------5/7/5-----2---------------5h7p5h7p5h7p5------------------|
B-----10/12/10------5/7/5-----2---------------7-------------7/8/7------------|
G-----------------------------2---------------6-------------------7----------|
D----------------------------------------------------------------------------|
A----------------------------------------------------------------------------|
E----------------------------------------------------------------------------|

e---0~~~~--3h5p3h5p3h5p3--|
B---5~~~~--5--------------|
G---4~~~~--4--------------|
D---4~~~~-----------------|
A---0~~~~-----------------|
E---3~~~~-----------------| x2


e----------------0-3-----------------0-3-------2h3p2h3p2-|
B---8-7/5-5/3--3-3------8-7/5-5/3-3--3---------2---------|
G---7-6/4-4/2--2-3------7-6/4-4/2-2--3---------2---------|
D----------------2-------------------2-------------------|
A--------------------------------------------------------|
E----------------3-------------------3-------------------|

   1. Stuck inside these four walls
   2. Never    seeing    no   one
e-----2----------------------------5h7p5h7p5h7p5-----------------------------|
B-----2----------------------------7-----------------------------------------|
G-----2----------------------------6-----------------------------------------|
D----------------------------------------------------------------------------|
A----------------------------------------------------------------------------|
E----------------------------------------------------------------------------|

  1. Sent inside forever
  2. Nice       again
e---0~~~~--------------3h5p3h5p3h5p3--|
B---5~~~~--------------5--------------|
G---4~~~~--------------4--------------|
D---4~~~~-----------------------------|
A---0~~~~-----------------------------|
E---3~~~~-----------------------------| x2

   Like You_________ Mama   You________
e--------------------0-3-----------------0-3------|
B-------8-7/5-5/3--3-3------8-7/5-5/3-3--3--------|
G-------7-6/4-4/2--2-3------7-6/4-4/2-2--3--------|
D--------------------2-------------------2--------|
A-------------------------------------------------|
E--------------------3-------------------3--------|

e-------------------------------------------|
B---1--1-1-1-1-0--0-0-0---3-3-3-3-3--0-0-0--|
G---2--2-2-2-2-2--2-2-2---2-2-2-2-2--2-2-2--|
D---2--2-2-2-2-2--2-2-2---0-0-0-0-0--0-0-0--|
A-------------------------------------------|
E-------------------------------------------| x2


  1.If I ever get out of here     Thought of giving it all away
  2.To a registered charity       All I'd need is a pint a day
e---------------------------------------------------------------|
B---1----1--1--1--1--0---0-0-0-----3--3--3--3--3----0--0--0-----|
G---2----2--2--2--2--2---2-2-2-----2--2--2--2--2----2--2--2-----|
D---2----2--2--2--2--2---2-2-2-----0--0--0--0--0----0--0--0-----|
A---------------------------------------------------------------|
E---------------------------------------------------------------| x2

    If I ever get out of here
e------------------------------|
B---1----1--1--1--1--0---0-0-0-|
G---2----2--2--2--2--2---2-2-2-|
D---2----2--2--2--2--2---2-2-2-|
A------------------------------|
E------------------------------| x2


C F C F

         C                    F                  C             F
Well the rain exploded with a mighty crash as we fell into the sun

        C                     F                                       Em
And the first one said to the second one there, "I hope you're having fun"

G           C    Em   C      Am
Band on the run. Band on the run.

         F             C
And the jailer man and sailor Sam

    F
Were searching every one

N.C.    C    F      C     C   F      C
For the band on the run, band on the run

C    F      C   C    F      C
Band on the run band on the run,

C    F      C
Band on the run

          C                 F
Well, the undertaker drew a heavy sigh

C                      F
Seeing no one else had come,

      C                       F
And a bell was ringing in the village square

                         Em
For the rabbits on the run.

G           C    Em   C      Am
Band on the run, band on the run.

        F              C
And the jailer man and sailor Sam

     F
Were searching every one

N.C.    C    F      C     C   F      C
For the band on the run, band on the run

C    F      C   C    F      C
Band on the run band on the run,

C    F      C
Band on the run

          C                        F
Well, the night was falling as the desert world

C        G
Began to settle down.

       C                             F
In the town they're searching for us every where

                     Em
But we never will be found.

G           C    Em   C      Am
Band on the run, band on the run.

        F                C
And the county judge who held a grudge

                F
Will search for evermore

N.C.    C    F      C     C   F      C
For the band on the run, band on the run

C    F      C   C    F      C
Band on the run band on the run,
C    F      C
Band on the run

Em  G  C
comments
print report bad tab
6 comments total. Showing first comments. show 1 bad comment
+2 reply
jgband wrote on July 16 2014, 07:56 pm

Really like the tab- But (imo) I think Fmaj7 sounds better than F

0 reply
cnemnem19 wrote on August 6 2014, 01:56 pm

I tried it that way and i completely agree! Thanks for the Input.

I want to post or [tab]
guest
You may want to rate the tab now too:
select rating
Please do not post tabs as comments. Select "correction" instead!