Oops, an error
Loading. Please wait.

Band On The Run Tab

version 4
version 4

Whole song

Interactive

13,190 views 108 this week
2 commentsread comments
1 2 3 4 5
x 18
add to favorites
launch autoscroll
font size
0
reset
how to read this tab
guitar tuner
Autoscroll
slow
fast
+/-
esc
set tempo
stop
Help us to improve Ultimate-Guitar.com Take our survey!
×
Artist: Paul McCartney & Wings                    
Song: Band On The Run                    
Tabbed by: SpiketheFerret
Tuning: Standard

e|--10/12\10--5/7\5--2--5h-7p5h-7p5h-7p5h-7p5h-7p5h-7p5h7------------3h-5p3h-5p3h-5p3h-5p3h-5p3h-5p3h5--|
B|--10/12\10--5/7\5--2--7----------------------------7/8p7--5--3----------------------------------------|
G|-------------------2--6---------------------------------7-4--4----------------------------------------|
D|----------------------------------------------------------4--4----------------------------------------|
A|----------------------------------------------------------0-------------------------------------------|
E|----------------------------------------------------------3-------------------------------------------|

e|--10/12\10--5/7\5--2--5h-7p5h-7p5h-7p5h-7p5h-7p5h-7p5h7------------3h-5p3h-5p3h-5p3h-5p3h-5p3h-5p3h5--|
B|--10/12\10--5/7\5--2--7----------------------------7/8p7--5--3----------------------------------------|
G|-------------------2--6---------------------------------7-4--4----------------------------------------|
D|----------------------------------------------------------4--4----------------------------------------|
A|----------------------------------------------------------0-------------------------------------------|
E|----------------------------------------------------------3-------------------------------------------|

e|--0-0\0-0\0---3----0-0\0-0\0-0--3--2h3p2-------------|
B|--8-7\5-5\3--3-----8-7\5-5\3-3-3---2-----------------|
G|--7-6\4-4\2--3-----7-6\4-4\2-2-3---2-----------------|
D|--0-0\0-0\0--2-----0-0\0-0\0-0-2---------------------|
A|-------------x-----------------x---------------------|
E|-------------3-----------------3---------------------|

    Stuck inside these four walls  
e|--2----------------------------5h-7p5h-7p5h-7p5h-7p5h-7p5h-7p5h7-----------------|
B|--2----------------------------7-------------------------------------------------|
G|--2----------------------------6-------------------------------------------------|
D|---------------------------------------------------------------------------------|
A|---------------------------------------------------------------------------------|
E|---------------------------------------------------------------------------------|

    Sent inside forever
e|---------------------3h-5p3h-5p3h-5p3h-5p3h-5p3h-5p3h5---------------------------|
B|--5------------------3-----------------------------------------------------------|
G|--4------------------4-----------------------------------------------------------|
D|--4------------------4-----------------------------------------------------------|
A|--0------------------------------------------------------------------------------|
E|--3------------------------------------------------------------------------------|

    Never    seeing     no    one  
e|--2----------------------------5h7p-5h7p-5h7p-5h7p-5h7p-5h7p-5h7-----------------|
B|--2----------------------------7-------------------------------------------------|
G|--2----------------------------6-------------------------------------------------|
D|---------------------------------------------------------------------------------|
A|---------------------------------------------------------------------------------|
E|---------------------------------------------------------------------------------|

    Nice          again    
e|---------------------3h5p-3h5p-3h5p-3h5p-3h5p-3h5p-3h5---------------------------|
B|--5------------------3-----------------------------------------------------------|
G|--4------------------4-----------------------------------------------------------|
D|--4------------------4-----------------------------------------------------------|
A|--0------------------------------------------------------------------------------|
E|--3------------------------------------------------------------------------------|

    Like you    Mama   you.    Mama   you. 
e|--2-----------0-3----2h3p2---0-3----2h3p-2h3p2-----------------------------|
B|--2-----------3------2-------3------2--------------------------------------|
G|--2-----------2------2-------2------2--------------------------------------|
D|--------------2--------------2---------------------------------------------|
A|--------------x--------------x---------------------------------------------|
E|--------------3--------------3---------------------------------------------|



Am Asus2 Am D D6 Am Asus2 Am D D6 Am Asus2 Am
Am Asus2 Am D D6 Am Asus2 Am D D6 Am Asus2 Am


Am   Asus2    Am 
If I ever get out of here,
D                    D6
Thought of giving it all  away
Am   Asus2      Am
To a registered charity.
D               D6
All I need is a pint  a day
Am Asus2  Am
If I ever get out of here.
Am Asus2   Am
If we ever get out of here.

e|-------------------------------------------------------------------|
B|-------------------------------------------------------------------|
G|--------------------7-7-5~-----------------------7-7-5~------------|
D|-----------------5--7-7-5~--------------------5--7-7-5~------------|
A|--------3--5--7-----5-5-3~-----------3--5--7-----7-7-3~------------|
E|---3--5--------------------------3--5------------------------------|

                  C            Fmaj7        C            Fmaj7
e|----------------0--0--0--0---0--0--0--0---0--0--0--0---0--0--0--0--|
B|----------------1--1--1--1---1--1--1--1---1--1--1--1---1--1--1--1--|
G|----------------0--0--0--0---2--2--2--2---0--0--0--0---2--2--2--2--|
D|----------------2--2--2--2---3--3--3--3---2--2--2--2---3--3--3--3--|
A|--------3-------3--3--3--3----------------3--3--3--3---------------|
E|---3--5----3--5----------------------------------------------------|


          C                    Fmaj7
Well, the rain exploded with a mighty crash
                       C
As we fell into the sun,
        C                     Fmaj7
And the first one said to the second one there
                      Em
I hope you're having fun.
G           C    Em           A 
Band on the run, band on the run.
        F              C
And the jailer man and sailor Sam
     F         F     F 
Were searching every one
        C     Fmaj7     C  Fmaj7  C     Fmaj7     C  Fmaj7 
For the band on the run,          band on the run
C     Fmaj7     C  Fmaj7  C     Fmaj7     C  Fmaj7 
band on the run,          band on the run
          C                 Fmaj7
Well, the undertaker drew a heavy sigh
                           C
Seeing no one else had come,
      C                       Fmaj7
And a bell was ringing in the village square
                       Em
For the rabbits on the run.

G           C    Em          A
Band on the run, band on the run.
        F              C
And the jailer man and sailor Sam
           F      F   F   
Were searching every one
        C    Fmaj7
For the band on the run,          

e|--7/8-8888----------------|
B|-----------8/10-8---------|
G|-------------------8/9-8--|
D|--------------------------|
A|--------------------------|
E|--------------------------|

C     Fmaj7
band on the run

e|--7/8-8888----------------|
B|-----------8/10-8---------|
G|-------------------8/9-88-|
D|--------------------------|
A|--------------------------|
E|--------------------------|

Em  G  C   Em C Am    

e |--7/8-------------------------------------|
B |------10\8------------------10\8----------|
G |-----------8/9-8888/10\8-8--------9-9/12--|
D |------------------------------------------|
A |------------------------------------------|
E |------------------------------------------|

         C    Fmaj7
Yeah the band on the run,          

e|--7/8-8888----------------|
B|-----------8/10-8---------|
G|-------------------8/9-8--|
D|--------------------------|
A|--------------------------|
E|--------------------------|

C     Fmaj7
band on the run

e|--7/8-88888----------------|
B|------------8/10-8---------|
G|--------------------8/9-8--|
D|---------------------------|
A|---------------------------|
E|---------------------------|
 
C     Fmaj7
band on the run

e|--7/8-8888----------------|
B|-----------8/10-8---------|
G|-------------------8/9-8--|
D|--------------------------|
A|--------------------------|
E|--------------------------|

C     Fmaj7
band on the run

e|--7/8-8888----------------|
B|-----------8/10-8---------|
G|-------------------8/9-8--|
D|--------------------------|
A|--------------------------|
E|--------------------------|


          C                        Fmaj7
Well, the night was falling as the desert world
                   C
Began to settle down.
       C                             Fmaj7
In the town they're searching for us every where
                       Em
But we never will be found.

G           C    Em          A 
Band on the run, band on the run.
        F                C
And the county judge who held a grudge
     F          F      F     
Will search for ever   more

        C    Fmaj7
For the band on the run,          

e|--7/8-8888----------------|
B|-----------8/10-8---------|
G|-------------------8/9-8--|
D|--------------------------|
A|--------------------------|
E|--------------------------|

C     Fmaj7
band on the run

e|--7/8-88888----------------|
B|------------8/10-8---------|
G|--------------------8/9-8--|
D|---------------------------|
A|---------------------------|
E|---------------------------|
 
C     Fmaj7
band on the run

e|--7/8-8888----------------|
B|-----------8/10-8---------|
G|-------------------8/9-8--|
D|--------------------------|
A|--------------------------|
E|--------------------------|

C     Fmaj7
band on the run

e|--7/8-8888----------------|
B|-----------8/10-8---------|
G|-------------------8/9-8--|
D|--------------------------|
A|--------------------------|
E|--------------------------|

Em  G  C



************************************

| h  Hammer-on
| p  Pull-off
| /  Slide up
| \  Slide down
| x  Dead note
| ~  Vibrato

************************************
Suggest correction
comments
print report bad tab
2 comments total.
0 reply
batmanfan466 10 Apr 25, 2014 06:10 PM

This is good but when it does the Em G C Em C Am. There's another guitar part, I was hoping to see that part of it.

0 reply
spiketheferret 110 Aug 19, 2015 12:39 PM

Added some slide guitar parts/solo

guest
You may want to rate the tab now too:
select rating
Wanna post a correction for this tab? Suggest correction