Oops, an error
Loading. Please wait.

Beautiful Night Bass Tab

46 views 3 this week
no commentswrite comment
1 2 3 4 5
3 more votes to show rating
add to favorites
launch autoscroll
font size
0
reset
guitar tuner
Autoscroll
slow
fast
+/-
esc
set tempo
stop
Help us to improve Ultimate-Guitar.com Take our survey!
×
Verse 1 :
G|---------------------------------|---------------------------------|
D|7--------------------------------|------------------------14--\----|
A|---------------------------------|7--------------------------------|
E|---------------------------------|---------------------------------|

G|---------------------------------|---------------------------------|
D|7--------------------------------|------------------------14--\----|
A|---------------------------------|---------------------------------|
E|---------------------------------|----------------12---------------|

G|---------------------------------|---------------------------------|
D|7---------------5----------------|----------------3----------------|
A|---------------------------------|---------------------------------|
E|---------------------------------|---------------------------------|

G|----------------14---------------|----------------9----------------|
D|---------------------------------|----------------------------7----|
A|---------------------------------|---------------------------------|
E|---------------------------------|---------------------------------|

G|------------------------6--------|9--------------------------------|
D|----------------7----------------|---------------------------------|
A|------------7--------------------|----------------7----------------|
E|---------------------------------|---------------------------------|

G|---------------------------------|---------------------------------|
D|7---------------7----------------|---------------------------------|
A|---------------------------------|7-----------7---7----------------|
E|---------------------------------|------------------------0--------|

G|---------------------------------|---------------------------------|
D|7--------------------------------|---------------------------------|
A|----------------4----------------|5-----------6---7----------------|
E|---------------------------------|------------------------0--------|

G|---------------------------------|---------------------------------|
D|---------------------------------|---------------------------------|
A|---------------------------------|---------------------------------|
E|5---------------3----------------|2---------------1----------------|

G|---------------------------------|---------------------------------|
D|---------------------------------|---------------------------------|
A|---------------------------------|---------------------------------|
E|----------------5----------------|5---------------0-----------5----|

G|---------------------------------|---------------------------------|
D|------------7---7---7---7---7----|---------------------------------|
A|---------------------------------|0-------0---0---1---2---3---4----|
E|---------------------------------|---------------------------------|

Chorus :
G|---------------------------------|---------------------------------|
D|---------------------------------|5-----------5---7-------9--------|
A|5-----------5---5----------------|---------------------------------|
E|---------------------------------|---------------------------------|

G|---------------------------------|---------------------------------|
D|10----------10--10---------------|---------------------------------|
A|---------------------------------|8-----------8---8-------7--------|
E|---------------------------------|---------------------------------|

G|---------------------------------|---------------------------------|
D|---------------------------------|---------------------------------|
A|5-----------5---5----------------|7-----------7--------------------|
E|---------------------------------|----------------0----------------|

G|---------------------------------|---------------------------------|
D|---------------------------------|---------------------------------|
A|0-----------0---0-----------0----|0-------0---0---1---2---3---4----|
E|---------------------------------|---------------------------------|

G|---------------------------------|---------------------------------|
D|---------------------------------|---------------------------------|
A|5-----------5---5----------------|---------------------------------|
E|---------------------------------|3-----------3---5-------7--------|

G|----------------5----------------|---------------------------------|
D|---------------------------------|---------------------------------|
A|3-----------3/5---------3--------|---------------------------------|
E|---------------------------------|1---------------1----------------|

G|----------------7----------------|----------------9----------------|
D|---------------------------------|---------------------------------|
A|5-----------5/7------------------|7-----------7/9------------------|
E|---------------------------------|---------------------------------|

G|------------------------6--------|9---9----------------------------|
D|----------------7----------------|---------------------------------|
A|0-----------7--------------------|----------------7----------------|
E|---------------------------------|---------------------------------|

Verse 2 :
G|---------------------------------|---------------------------------|
D|7---------------7----------------|---------------------------------|
A|---------------------------------|7-----------7--------------------|
E|---------------------------------|----------------0----------------|

G|---------------------------------|------------9--------------------|
D|7--------------------------------|---------------------------------|
A|----------------4----------------|5---------------7----------------|
E|---------------------------------|------------------------0--------|

G|---------------------------------|---------------------------------|
D|---------------------------------|---------------------------------|
A|---------------------------------|---------------------------------|
E|5---------------3----------------|2---------------1----------------|

G|---------------------------------|---------------------------------|
D|---------------------------------|---------------------------------|
A|---------------------------------|---------------------------------|
E|----------------5----------------|5---------------0-----------5----|

G|-----------------|
D|-----------------| <-- 4 instead of 8 (to adjust bridge in the timing)
A|-----------------|
E|-----------------|

Bridge :
G|---------------------------------|---------------------------------|
D|---------------------------------|---------------------------------|
A|---------------------------------|---------------------------------|
E|2---------------2----------------|2---------------2---2------------|

G|---------------------------------|---------------------------------|
D|---------------------------------|---------------------------------|
A|---------------------------------|------------3---5-------5---3----|
E|5---------------5-----------0----|5-------5------------------------|

G|---------------------------------|---------------------------------|
D|---------------------------------|7---------------4----------------|
A|---------------------------------|---------------------------------|
E|5---------------5-----------5/7--|---------------------------------|

G|---------------------------------|---------------------------------|
D|4-----------4---4----------------|----------------4----------------|
A|---------------------------------|------------------------4--------|
E|---------------------------------|---------------------------------|


G|---------------------------------|---------------------------------|
D|----------------7----------------|----------------7----------------|
A|---------------------------------|---------------------------------|
E|5-------5--/--7------------------|---------------------------------|

G|---------------------------------|---------------------------------|
D|4-------4-------4----------------|----------------------------/----|
A|------------------------5--------|---------------------------------|
E|---------------------------------|---------------------------------|

G|---------------------------------|--------12-/14---12-/14---12-/14-|
D|7--------------------------------|---------------------------------|
A|---------------------------------|---------------------------------|
E|---------------------------------|---------------------------------|

G|---------------------------------|
D|---------------------------------|
A|--------0---0---1---2---3---4----|
E|---------------------------------|

Chorus :
G|---------------------------------|---------------------------------|
D|---------------------------------|---------------------------------|
A|5-----------5---5----------------|---------------------------------|
E|---------------------------------|3-----------3---5-------7--------|

G|----------------5----------------|---------------------------------|
D|---------------------------------|---------------------------------|
A|3-----------3-----------3--------|---------------------------------|
E|---------------------------------|1---------------1----------------|

G|---------------------------------|---------------------------------|
D|---------------------------------|---------------------------------|
A|5-----------5---5----------------|7-----------7---7---7-------7----|
E|---------------------------------|---------------------------------|

G|-----------------------6---------|6---6-------6--------------------|
D|7-------9-------10---------------|---------------------------------|
A|---------------------------------|----------------2-------4--------|
E|---------------------------------|---------------------------------|

G|---------------------------------|---------------------------------|
D|---------------------------------|---------------------------------|
A|5-------5-------5-------5--------|---------------------------------|
E|---------------------------------|3-------3-------5-------7--------|

G|---------------------------------|---------------------------------|
D|---------------------------------|---------------------------------|
A|3-------3-------1----------------|------------------------3--------|
E|------------------------3--------|1-------3-------5----------------|

G|--------7-------5----------------|---------------------------------|
D|------------------------7--------|---------------------------------|
A|5--------------------------------|7-------7-------7----------------|
E|---------------------------------|------------0-----------0--------|

G|---------------------------------|---------------------------------|
D|---------------------------------|---------------------------------|
A|------------------------4--------|7---7-------7--------------------|
E|5-----------0---5----------------|---------------------------------|

G|------------------------6--------|9---9----------------------------|
D|----------------7----------------|---------------------------------|
A|7-----------7--------------------|------------7--------------------|
E|---------------------------------|---------------------------------|

G|---------------------------------|---------------------------------|
D|---------------------------------|---------------------------------|
A|7--------------------------------|---------------------------------|
E|---------------------------------|---------------------------------|

3:33
Outro
G|---------------------------------|----12121211212121212121212121212|*lot of 
D|---------------------------------|---------------------------------|  12’s
A|0-------0------------------------|---------------------------------|
E|---------------------------------|---------------------------------|

G|---------------------------------|---------------------------------|
D|---------------------------------|---------------------------------|
A|9-------9-------9-------9--------|5-----------5---5-------5---5----|
E|---------------------------------|---------------------------------|

G|---------------------------------|---------------------------------|
D|7---7---5---5---0---7------------|7---7---5---5---0---7------------|
A|------------------------5---7----|------------------------5---7----|
E|---------------------------------|---------------------------------|

Repeat again and again
G|---------------------------------|---------------------------------|
D|---------------------------------|---------------------------------|
A|9-------9-------9---9---9---9----|5-------5-------5---5---5---5----|
E|---------------------------------|---------------------------------|

G|---------------------------------|---------------------------------|
D|7---7---5---5---0---7------------|7---7---5---5---0---7------------|
A|------------------------5---7----|------------------------5---7----|
E|---------------------------------|---------------------------------|


Finish on this note :
G|---------------------------------|---------------------------------|
D|7--------------------------------|---------------------------------|
A|---------------------------------|---------------------------------|
E|---------------------------------|---------------------------------|
Suggest correction
Give kudos to tab author, rate the tab!
1 2 3 4 5
comments
print report bad tab
guest
You may want to rate the tab now too:
select rating
Wanna post a correction for this tab? Suggest correction