Oops, an error
Loading. Please wait.

Big Barn Bed Bass Tab

version 1
version 1

Whole song

701 views 6 this week
no commentswrite comment
1 2 3 4 5
please rate
add to favorites
launch autoscroll
font size
0
reset
guitar tuner
Autoscroll
slow
fast
+/-
esc
set tempo
stop
Help us to improve Ultimate-Guitar.com Take our survey!
×
-------------------------------------------------------------------------------
                             Big Barn Bed - Paul McCartney and Wings
-------------------------------------------------------------------------------
Tabbed by: Mike Kunz
E-mail: rmjk21@embarqmail.com

Tuning: Standard


  intro
G|---------------------------------------------------------------------|
D|-------------------------------10-86----------------10-86------------|
A|-8-8-8-8-8-8-8-8-8-8-8-8-8-8-8------8-8-8-8-8-8-8-8------8-8-8-8-8-8-|
E|---------------------------------------------------------------------|

  who's that, coming round that corner
G|-----------------------------------------------------------------------|
D|-----------------10-86----------------10-86----------------------------|
A|-8-8-8-8-8-8-8-8------8-8-8-8-8-8-8-8------8-8-8-8-8-8-8-8-6-6-5-5-8-8-|
E|-----------------------------------------------------------------------|

  keep on, sleepin in a big barn bed
G|-------------------------------------------------------------------------|
D|-------------------------------------------------------------------------|
A|-656-------8-8-8-8-656-------8-8-8-8-656-------8-8-8-8-656-------8-8-8-8-|
E|-----8-6-4-------------8-6-4-------------8-6-4-------------8-6-4---------|

  and I'm not.
G|---------------------------------------------|
D|------\1715------\1715------\1715------\1715-|
A|-88---------88---------88---------88---------|
E|---------------------------------------------|

  who you gonna weep on
G|--------------------------------------------|
D|-----------------10-86---------------10-86--|
A|-8-8-8-8-8-8-8-8------8-8-8-8-8-8-8-8-----8-|
E|--------------------------------------------|

  keep on, sleepin in a big barn bed
G|-------------------------------------------------------------------------|
D|-------------------------------------------------------------------------|
A|-656-------8-8-8-8-656-------8-8-8-8-656-------8-8-8-8-656-------8-8-8-8-|
E|-----8-6-4-------------8-6-4-------------8-6-4-------------8-6-4---------|

  interlude
G|----------------------------------------------------------------------|
D|-----------------10-86---------------10-86----------------------------|
A|-8-8-8-8-8-8-8-8------8-8-8-8-8-8-8-8-----8-8-8-8-8-8-8-8-6-6-5-5-8-8-|
E|----------------------------------------------------------------------|

  keep on, sleepin in a big barn bed
G|-------------------------------------------------------------------------|
D|-------------------------------------------------------------------------|
A|-656-------8-8-8-8-656-------8-8-8-8-656-------8-8-8-8-656-------8-8-8-8-|
E|-----8-6-4-------------8-6-4-------------8-6-4-------------8-6-4---------|

   and I'm not.
G|---------------------------------------------|
D|------\1715------\1715------\1715------\1715-|
A|-88---------88---------88---------88---------|
E|---------------------------------------------|

  who you gonna weep on
G|---------------------------------------------|
D|-----------------10-86----------------10-86--|
A|-8-8-8-8-8-8-8-8------8-8-8-8-8-8-8-8------8-|
E|---------------------------------------------|

  keep on, sleepin in a big barn bed
G|-------------------------------------------------------------------------|
D|-------------------------------------------------------------------------|
A|-656-------8-8-8-8-656-------8-8-8-8-656-------8-8-8-8-656-------8-8-8-8-|
E|-----8-6-4-------------8-6-4-------------8-6-4-------------8-6-4---------|


  outro
G|-------------------------------------------------------------------------|
D|-------------------------------------------------------------------------|
A|-656-------8-8-8-8-656-------8-8-8-8-656-------8-8-8-8-656-------8-8-8-8-|
E|-----8-6-4-------------8-6-4-------------8-6-4-------------8-6-4---------|

  keep on,
G|-------------------------------------|
D|-------------------------------------|
A|-656-------8-8-8-8-656-------8-8-8-8-|
E|-----8-6-4-------------8-6-4---------|
Suggest correction
Give kudos to tab author, rate the tab!
1 2 3 4 5
comments
print report bad tab
guest
You may want to rate the tab now too:
select rating
Please do not post tabs as comments. Select "correction" instead!