Oops, an error
Loading. Please wait.

Brown Eyed Handsome Man bass

130 views 1 this week
no commentswrite comment
1 2 3 4 5
3 more votes to show rating
add to favorites
×
Save as Personal and add changes to this tab that will be seen only by you. Learn more ›
×
You can save this tab as Personal to edit and correct it or add notes. All changes will be seen only by you. Learn more »
launch autoscroll
font size
0
reset
guitar tuner
edit
Autoscroll
slow
fast
+/-
esc
set tempo
stop
INTRO
G----11-11-11-11/0-0-0
D---------------------
A---------------------
E---------------------

VERSE
G------------------------------------------------------------------------------
D-5-------5-----3-5-------5-------5--------------------------------------------
A-----5-------5-------5-------5-------5---3-----3-5-----------5---3---5-------5
E---------------------------------------------3-------5---3---------------3----

G------------------------------------------------------------------------------
D---------5---------------5-------5--------------------------------------------
A-----5-------5-------5-------5-------5---3-----3-5-----------5---3---5-------5
E-3---------------3---------------------------3-------5---3---------------3----

INTERLUDE
           X2                                                   X4
G---------------------|-----------------------------------|---------------------
D-5-------5---5---3-5-|-5-----------------------5-------5-|-5-------5---5---3-5-
A-----5---------5-----|-----5---3-----3-5-----------5-----|-----5---------5-----
E---------------------|-------------3-------5-------------|---------------------

VERSE
G------------------------------------------------------------------------------
D-5-------5-----3-5-------5-------5--------------------------------------------
A-----5-------5-------5-------5-------5---3-----3-5-----------5---3---5-------5
E---------------------------------------------3-------5---3---------------3----

G------------------------------------------------------------------------------
D---------5---------------5-------5--------------------------------------------
A-----5-------5-------5-------5-------5---3-----3-5-----------5---3---5-------5
E-3---------------3---------------------------3-------5---3---------------3----

INTERLUDE
           X2                                                    X4
G---------------------|-----------------------------------|---------------------
D-5-------5---5---3-5-|-5-----------------------5-------5-|-5-------5---5---3-5-
A-----5---------5-----|-----5---3-----3-5-----------5-----|-----5---------5-----
E---------------------|-------------3-------5-------------|---------------------

VERSE

G------------------------------------------------------------------------------
D-5-------5-----3-5-------5-------5--------------------------------------------
A-----5-------5-------5-------5-------5---3-----3-5-----------5---3---5-------5
E---------------------------------------------3-------5---3---------------3----

INTERLUDE
           X2                                                    X4
G---------------------|-----------------------------------|---------------------
D-5-------5---5---3-5-|-5-----------------------5-------5-|-5-------5---5---3-5-
A-----5---------5-----|-----5---3-----3-5-----------5-----|-----5---------5-----
E---------------------|-------------3-------5-------------|---------------------

Enjoy

This is my first tab and I play bass for something like 6 months so if it needs correction, this is my mail :
axelvignet91470@hotmail.fr

            
            
Suggest correction
Creating personal tab
Creating personal tab
You can edit any tab online and save it as your Personal.

You can edit, replace or remove any tab part or add personal notes – all changes will be seen only by you.

Personal tabs can be accessed anytime from any device, even offline.
Learn more »
Give kudos to tab author, rate the tab!
1 2 3 4 5
comments
print report bad tab
guest
You may want to rate the tab now too:
select rating
Wanna post a correction for this tab? Suggest correction