Oops, an error
Loading. Please wait.

C Moon Bass Tab

2,983 views 12 this week
no commentswrite comment
1 2 3 4 5
please rate
add to favorites
launch autoscroll
font size
0
reset
guitar tuner
Autoscroll
slow
fast
+/-
esc
set tempo
stop
Help us to improve Ultimate-Guitar.com Take our survey!
×
Author
C MOON

INTRO

G|---------------------------------|---------------------------------|
D|---------------------------------|---------------------------------|
A|-3-----------3---3---------------|---------------------------------|
E|---------------------------------|---------------------------------|

G|---------------------------------|---------------------------------|
D|---------------------------------|---------------------------------|
A|-0-----------0---0---------------|---------------------------------|
E|---------------------------------|---------------------------------|

G|---------------------------------|---------------------------------|
D|---------------------------------|---------------------------------|
A|-3-----------3---3---------------|---------------------------------|
E|---------------------------------|---------------------------------|

G|---------------------------------|---------------------------------|
D|---------------------------------|---------------------------------|
A|-3-----------3---3---------------|-3-----------2-------------------|
E|---------------------------------|-------------------------3-------|

CHORUS

G|---------------------------------|---------------------------------|
D|---------------------------------|---------------------------------|
A|-3---------------------------3---|-3-------------------------------|
E|---------------------------------|-------------0-------------------|

G|---------------------------------|---------------------------------|
D|---------------------------------|---------------------------------|
A|-0---------------------------0---|-0-------------------------------|
E|---------------------------------|-------------1-------------------|

G|---------------------------------|---------------------------------|
D|---------------------------------|---------------------------------|
A|-3---------------------------3---|-3-------------------------------|
E|---------------------------------|-------------3-------------------|

G|---------------------------------|---------------------------------|
D|---------------------------------|---------------------------------|
A|-3-------------------------------|-3-----------2-------------------|
E|---------------------------------|-------------------------3-------|

G|---------------------------------|---------------------------------|
D|---------------------------------|---------------------------------|
A|-3---------------------------3---|-3-------------------------------|
E|---------------------------------|-------------0-------------------|

G|---------------------------------|---------------------------------|
D|---------------------------------|---------------------------------|
A|-0---------------------------0---|-0-------------------------------|
E|---------------------------------|-------------1-------------------|

G|---------------------------------|---------------------------------|
D|---------------------------------|---------------------------------|
A|-3---------------------------3---|-3-------------------------------|
E|---------------------------------|-------------3-------------------|

G|---------------------------------|---------------------------------|
D|---------------------------------|---------------------------------|
A|-3-------------------------------|-3-----------2-------------------|
E|---------------------------------|-------------------------3-------|

VERSE

G|-----------------------------2---|-----------------7---------------|
D|-0-------------------------------|---------------------------------|
A|---------------------------------|---------------------------------|
E|---------------------------------|---------------------------------|

G|-------------------------0---5---|---------------------------------|
D|---------------------------------|---------------------------------|
A|---------------------7-----------|---------------------------------|
E|-8-------------------------------|---------------------------------|

G|---------------------------------|---------------------------------|
D|---------------------------------|---------------------------------|
A|-2-------------------------------|-1-------------------------------|
E|---------------------------------|---------------------------------|

G|---------------------------------|-----------------------------2---|
D|---------------------------------|-0-------------------------------|
A|---------------------------------|---------------------------------|
E|---------------------------------|---------------------------------|

G|-7-------------------------------|-------------------------0---5---|
D|---------------------------------|---------------------------------|
A|---------------------------------|---------------------7-----------|
E|---------------------------------|-8-------------------------------|

G|---------------------------------|---------------------------------|
D|---------------------------------|---------------------------------|
A|---------------------------------|-2-------------------------------|
E|---------------------------------|---------------------------------|

G|---------------------------------|---------------------------------|
D|---------------------------------|---------------------------------|
A|-1-------------------------------|---------------------------------|
E|---------------------------------|---------------------------------|

G|---------------------------------|---------------------------------|
D|-----------------0---------------|---------------------------------|
A|-0-------------------------------|---------------------------------|
E|---------------------------------|-3-------------------------------|

CHORUS

G|---------------------------------|---------------------------------|
D|---------------------------------|---------------------------------|
A|-3---------------------------3---|-3-------------------------------|
E|---------------------------------|-------------0-------------------|

G|---------------------------------|---------------------------------|
D|---------------------------------|---------------------------------|
A|-0---------------------------0---|-0-------------------------------|
E|---------------------------------|-------------1-------------------|

G|---------------------------------|---------------------------------|
D|---------------------------------|---------------------------------|
A|-3---------------------------3---|-3-------------------------------|
E|---------------------------------|-------------3-------------------|

G|---------------------------------|---------------------------------|
D|---------------------------------|---------------------------------|
A|-3-------------------------------|-3-----------2-------------------|
E|---------------------------------|-------------------------3-------|

G|---------------------------------|---------------------------------|
D|---------------------------------|---------------------------------|
A|-3---------------------------3---|-3-------------------------------|
E|---------------------------------|-------------0-------------------|

G|---------------------------------|---------------------------------|
D|---------------------------------|---------------------------------|
A|-0---------------------------0---|-0-------------------------------|
E|---------------------------------|-------------1-------------------|

G|---------------------------------|---------------------------------|
D|---------------------------------|---------------------------------|
A|-3---------------------------3---|-3-------------------------------|
E|---------------------------------|-------------3-------------------|

G|---------------------------------|---------------------------------|
D|---------------------------------|---------------------------------|
A|-3---------------------------3---|-3-------------------------------|
E|---------------------------------|-------------3-----------3-------|

VERSE

G|-----------------------------2---|-7-------------------------------|
D|-0-------------------------------|---------------------------------|
A|---------------------------------|---------------------------------|
E|---------------------------------|---------------------------------|

G|-------------------------0---5---|---------------------------------|
D|---------------------------------|---------------------------------|
A|---------------------7-----------|---------------------------------|
E|-8-------------------------------|---------------------------------|

G|---------------------------------|---------------------------------|
D|---------------------------------|---------------------------------|
A|-2---------------------------1---|-1-------------------------------|
E|---------------------------------|---------------------------------|

G|---------------------------------|-----------------------------2---|
D|---------------------------------|-0-------------------------------|
A|---------------------------------|---------------------------------|
E|---------------------------------|---------------------------------|

G|-7-------------------------------|-------------------------0---5---|
D|---------------------------------|---------------------------------|
A|---------------------------------|---------------------7-----------|
E|---------------------------------|-8-------------------------------|

G|---------------------------------|---------------------------------|
D|---------------------------------|---------------------------------|
A|---------------------------------|-2-------------------------------|
E|---------------------------------|---------------------------------|

G|---------------------------------|---------------------------------|
D|---------------------------------|---------------------------------|
A|-2-------------------------------|---------------------------------|
E|---------------------------------|---------------------------------|

G|---------------------------------|---------------------------------|
D|-----------------0---------------|---------------------------------|
A|-0-------------------------------|---------------------------------|
E|---------------------------------|-3-------------------------------|

CHORUS

G|---------------------------------|---------------------------------|
D|---------------------------------|---------------------------------|
A|-3---------------------------3---|-3-------------------------------|
E|---------------------------------|-------------0-------------------|

G|---------------------------------|---------------------------------|
D|---------------------------------|---------------------------------|
A|-0---------------------------0---|-0-------------------------------|
E|---------------------------------|-------------1-------------------|

G|---------------------------------|---------------------------------|
D|---------------------------------|---------------------------------|
A|-3---------------------------3---|-3-------------------------------|
E|---------------------------------|-------------3-------------------|

G|---------------------------------|---------------------------------|
D|---------------------------------|---------------------------------|
A|-3-------------------------------|-3-----------2-------------------|
E|---------------------------------|-------------------------3-------|

G|---------------------------------|---------------------------------|
D|---------------------------------|---------------------------------|
A|-3---------------------------3---|-3-------------------------------|
E|---------------------------------|-------------0-------------------|

G|---------------------------------|---------------------------------|
D|---------------------------------|---------------------------------|
A|-0---------------------------0---|-0-------------------------------|
E|---------------------------------|-------------1-------------------|

G|---------------------------------|---------------------------------|
D|---------------------------------|---------------------------------|
A|-3---------------------------3---|-3-------------------------------|
E|---------------------------------|-------------3-------------------|

G|---------------------------------|---------------------------------|
D|---------------------------------|---------------------------------|
A|-3---------------------------3---|-3-----------2-------------------|
E|---------------------------------|-------------------------3-------|

VERSE

G|-----------------------------2---|-7-------------------------------|
D|-0-------------------------------|---------------------------------|
A|---------------------------------|---------------------------------|
E|---------------------------------|---------------------------------|

G|-------------------------0---5---|---------------------------------|
D|---------------------------------|---------------------------------|
A|---------------------7-----------|---------------------------------|
E|-8-------------------------------|---------------------------------|

G|---------------------------------|---------------------------------|
D|---------------------------------|---------------------------------|
A|-2---------------------------1---|-1-------------------------------|
E|---------------------------------|---------------------------------|

G|---------------------------------|-----------------------------2---|
D|---------------------------------|-0-------------------------------|
A|---------------------------------|---------------------------------|
E|---------------------------------|---------------------------------|

G|-7-------------------------------|-------------------------0---5---|
D|---------------------------------|---------------------------------|
A|---------------------------------|---------------------7-----------|
E|---------------------------------|-7-------------------------------|

G|---------------------------------|---------------------------------|
D|---------------------------------|---------------------------------|
A|---------------------------------|-2-------------------------------|
E|---------------------------------|---------------------------------|

G|---------------------------------|---------------------------------|
D|---------------------------------|---------------------------------|
A|-1-------------------------------|---------------------------------|
E|---------------------------------|---------------------------------|

G|---------------------------------|---------------------------------|
D|-----------------0---------------|---------------------------------|
A|-0-------------------------------|---------------------------------|
E|---------------------------------|-3-------------------------------|

CHORUS

G|---------------------------------|---------------------------------|
D|---------------------------------|---------------------------------|
A|-3---------------------------3---|-3-------------------------------|
E|---------------------------------|-------------0-------------------|

G|---------------------------------|---------------------------------|
D|---------------------------------|---------------------------------|
A|-0---------------------------0---|-0-------------------------------|
E|---------------------------------|-------------1-------------------|

G|---------------------------------|---------------------------------|
D|---------------------------------|---------------------------------|
A|-3---------------------------3---|-3-------------------------------|
E|---------------------------------|-------------3-------------------|

G|---------------------------------|---------------------------------|
D|---------------------------------|---------------------------------|
A|-3-------------------------------|-3-----------2-------------------|
E|---------------------------------|-------------------------3-------|

G|---------------------------------|---------------------------------|
D|---------------------------------|---------------------------------|
A|-3---------------------------3---|-3-------------------------------|
E|---------------------------------|-------------0-------------------|

G|---------------------------------|---------------------------------|
D|---------------------------------|---------------------------------|
A|-0---------------------------0---|-0-------------------------------|
E|---------------------------------|-------------1-------------------|

G|---------------------------------|---------------------------------|
D|---------------------------------|---------------------------------|
A|-3---------------------------3---|-3-------------------------------|
E|---------------------------------|-------------3-------------------|

G|---------------------------------|---------------------------------|
D|---------------------------------|---------------------------------|
A|-3---------------------------3---|-3-----------2-------------------|
E|---------------------------------|-------------------------3-------|

VERSE

G|-----------------------------2---|-7-------------------------------|
D|-0-------------------------------|---------------------------------|
A|---------------------------------|---------------------------------|
E|---------------------------------|---------------------------------|

G|-------------------------0---5---|---------------------------------|
D|---------------------------------|---------------------------------|
A|---------------------7-----------|---------------------------------|
E|-8-------------------------------|---------------------------------|

G|---------------------------------|---------------------------------|
D|---------------------------------|---------------------------------|
A|-2---------------------------1---|-1-------------------------------|
E|---------------------------------|---------------------------------|

G|---------------------------------|-----------------------------2---|
D|---------------------------------|-0-------------------------------|
A|---------------------------------|---------------------------------|
E|---------------------------------|---------------------------------|

G|-7-------------------------------|-------------------------0---5---|
D|---------------------------------|---------------------------------|
A|---------------------------------|---------------------7-----------|
E|---------------------------------|-8-------------------------------|

G|---------------------------------|---------------------------------|
D|---------------------------------|---------------------------------|
A|---------------------------------|-2-------------------------------|
E|---------------------------------|---------------------------------|

G|---------------------------------|---------------------------------|
D|---------------------------------|---------------------------------|
A|-1-------------------------------|---------------------------------|
E|---------------------------------|---------------------------------|

G|---------------------------------|---------------------------------|
D|-----------------0---------------|---------------------------------|
A|-0-------------------------------|---------------------------------|
E|---------------------------------|-3-------------------------------|

CHORUS

G|---------------------------------|---------------------------------|
D|---------------------------------|---------------------------------|
A|-3---------------------------3---|-3-------------------------------|
E|---------------------------------|-------------0-------------------|

G|---------------------------------|---------------------------------|
D|---------------------------------|---------------------------------|
A|-0---------------------------0---|-0-------------------------------|
E|---------------------------------|-------------1-------------------|

G|---------------------------------|---------------------------------|
D|---------------------------------|---------------------------------|
A|-3---------------------------3---|-3-------------------------------|
E|---------------------------------|-------------3-------------------|

G|---------------------------------|---------------------------------|
D|---------------------------------|---------------------------------|
A|-3-------------------------------|-3-----------2-------------------|
E|---------------------------------|-------------------------3-------|

G|---------------------------------|---------------------------------|
D|---------------------------------|---------------------------------|
A|-3---------------------------3---|-3-------------------------------|
E|---------------------------------|-------------0-------------------|

G|---------------------------------|---------------------------------|
D|---------------------------------|---------------------------------|
A|-0---------------------------0---|-0-------------------------------|
E|---------------------------------|-------------1-------------------|

G|---------------------------------|---------------------------------|
D|---------------------------------|---------------------------------|
A|-3---------------------------3---|-3-------------------------------|
E|---------------------------------|-------------3-------------------|

G|---------------------------------|---------------------------------|
D|---------------------------------|---------------------------------|
A|-3---------------------------3---|-3-----------2-------------------|
E|---------------------------------|-------------------------3-------|

SOLO

G|-----------------------------2---|-7-------------------------------|
D|-0-------------------------------|---------------------------------|
A|---------------------------------|---------------------------------|
E|---------------------------------|---------------------------------|

G|-------------------------0---5---|---------------------------------|
D|---------------------------------|---------------------------------|
A|---------------------7-----------|---------------------------------|
E|-8-------------------------------|---------------------------------|

G|---------------------------------|---------------------------------|
D|---------------------------------|---------------------------------|
A|-2---------------------------1---|-1-------------------------------|
E|---------------------------------|---------------------------------|

G|---------------------------------|-----------------------------2---|
D|---------------------------------|-0-------------------------------|
A|---------------------------------|---------------------------------|
E|---------------------------------|---------------------------------|

G|-7-------------------------------|-------------------------0---5---|
D|---------------------------------|---------------------------------|
A|---------------------------------|---------------------7-----------|
E|---------------------------------|-8-------------------------------|

G|---------------------------------|---------------------------------|
D|---------------------------------|---------------------------------|
A|---------------------------------|-2-------------------------------|
E|---------------------------------|---------------------------------|

G|---------------------------------|---------------------------------|
D|---------------------------------|---------------------------------|
A|-1-------------------------------|---------------------------------|
E|---------------------------------|---------------------------------|

G|---------------------------------|---------------------------------|
D|-----------------0---------------|---------------------------------|
A|-0-------------------------------|---------------------------------|
E|---------------------------------|-3-------------------------------|

CHORUS

G|---------------------------------|---------------------------------|
D|---------------------------------|---------------------------------|
A|-3---------------------------3---|-3-------------------------------|
E|---------------------------------|-------------0-------------------|

G|---------------------------------|---------------------------------|
D|---------------------------------|---------------------------------|
A|-0---------------------------0---|-0-------------------------------|
E|---------------------------------|-------------1-------------------|

G|---------------------------------|---------------------------------|
D|---------------------------------|---------------------------------|
A|-3---------------------------3---|-3-------------------------------|
E|---------------------------------|-------------3-------------------|

G|---------------------------------|---------------------------------|
D|---------------------------------|---------------------------------|
A|-3-------------------------------|-3-----------2-------------------|
E|---------------------------------|-------------------------3-------|

G|---------------------------------|---------------------------------|
D|---------------------------------|---------------------------------|
A|-3---------------------------3---|-3-------------------------------|
E|---------------------------------|-------------0-------------------|

G|---------------------------------|---------------------------------|
D|---------------------------------|---------------------------------|
A|-0---------------------------0---|-0-------------------------------|
E|---------------------------------|-------------1-------------------|

G|---------------------------------|---------------------------------|
D|---------------------------------|---------------------------------|
A|-3---------------------------3---|-3-------------------------------|
E|---------------------------------|-------------3-------------------|

G|---------------------------------|---------------------------------|
D|---------------------------------|---------------------------------|
A|-3---------------------------3---|-3-----------2-------------------|
E|---------------------------------|-------------------------3-------|

OUTRO

G|-----------------------------2---|-7-------------------------------|
D|-0-------------------------------|---------------------------------|
A|---------------------------------|---------------------------------|
E|---------------------------------|---------------------------------|

G|-------------------------0---5---|---------------------------------|
D|---------------------------------|---------------------------------|
A|---------------------7-----------|---------------------------------|
E|-8-------------------------------|---------------------------------|

G|---------------------------------|---------------------------------|
D|---------------------------------|---------------------------------|
A|-2---------------------------1---|-1-------------------------------|
E|---------------------------------|---------------------------------|

G|---------------------------------|-----------------------------2---|
D|---------------------------------|-0-------------------------------|
A|---------------------------------|---------------------------------|
E|---------------------------------|---------------------------------|

G|-7-------------------------------|-------------------------0---5---|
D|---------------------------------|---------------------------------|
A|---------------------------------|---------------------7-----------|
E|---------------------------------|-8-------------------------------|

G|---------------------------------|---------------------------------|
D|---------------------------------|---------------------------------|
A|---------------------------------|-2-------------------------------|
E|---------------------------------|---------------------------------|

G|---------------------------------|---------------------------------|
D|---------------------------------|---------------------------------|
A|-1-------------------------------|---------------------------------|
E|---------------------------------|---------------------------------|
                                                             FADE OUT
Suggest correction
Give kudos to tab author, rate the tab!
1 2 3 4 5
comments
print report bad tab
guest
You may want to rate the tab now too:
select rating
Wanna post a correction for this tab? Suggest correction