Oops, an error
Loading. Please wait.

Cafe On The Left Bank Bass Tab

274 views 1 this week
no commentswrite comment
1 2 3 4 5
please rate
add to favorites
launch autoscroll
font size
0
reset
guitar tuner
Autoscroll
slow
fast
+/-
esc
set tempo
stop
Help us to improve Ultimate-Guitar.com Take our survey!
×
Contributor
-------------------------------------------------------------------------------
                             Cafe On The Left Bank-Paul McCartney 
-------------------------------------------------------------------------------
Tabbed by: Mike Kunz 
E-mail: rmjk21@embarqmail.com

Tuning: Standard


  intro
G|----------|-----------------------------------------------|
D|----------|------------5--------5---------5--------\12-12-|
A|-5-3-1--1-|-3--5-5-------5-5-------5-5-------5-5----------|
E|----------|---------3---------3--------3---------3--------|

  Cafe on the left bank
G|-----------------------------------------------------------------------------|
D|----------7--------------------------------------7---------------------------|
A|-5-5--5-5-------5-----5-5-----5-5--5-5--5-5--5-5------5-----5-5-----5-5--5-5-|
E|------------3-3---3-3-----5-5---------------------3-3---3-3-----5-5----------|

  Dancing after midnight
G|----------------------------------------------------|
D|----------------------------------------------------|
A|---------------5-5--5-5--5-5---------------5--------|
E|-3-3--3-3--3-3---------------3-3--3-3--3-3--------5-|


  English speaking people                  interlude
G|---------------------------------------|-------------------------------------------|
D|----------7----------------------------|---------------------------------\12-12-12-|
A|-5-5--5-5-------5-----5-5-----5-5--5-5-|---------5-5-5-5---------5-5-5-5-----------|
E|------------3-3---3-3-----5-5----------|-3-3-3-3---------3-3-3-3-------------------|

  Cafe on the left bank                    guitar solo
G|---------------------------------------|--------------------7-7-------7----|
D|----------7----------------------------|-----------------------------------|
A|-5-5--5-5-------5-----5-5-----5-5--5-5-|-5-------5-------5-------5-------5-|
E|------------3-3---3-3-----5-5----------|-----------------------------------|

  Dancing after midnight
G|------------------------------------------------|
D|------------------------------------------------|
A|---------------5-5--5-5--5-5----------5---------|
E|-3-3--3-3--3-3---------------3-3--3-3---------5-|

  English speaking people
G|-------------------------------|
D|----------7--------------------|
A|-5-5--5-5-------5-----5-5------|
E|------------3-3---3-3------5-5-|

  Outro
G|----------|----------------------------------------------------|
D|----------|----------------------------------------------------|
A|-5-3-1--1-|-3--5-5-----5-5-----5-5-----5-5-----5-5-----5-5-----|
E|----------|--------3-3-----3-3-----3-3-----3-3-----3-3-----3-3-|

G|-------------------------------------------|
D|-\12-12-12---------------------------------|
A|-----------5-5-----5-5-----5-5-----5-5-----|
E|---------------3-3-----3-3-----3-3-----3-3-|
comments
We did not receive enough feedback on this tab! Please rate:
print report bad tab
1 2 3 4 5
I want to post or [tab]
guest
You may want to rate the tab now too:
select rating
Please do not post tabs as comments. Select "correction" instead!