Oops, an error
Loading. Please wait.

Check My Machine Bass Tab

22 views 3 this week
no commentswrite comment
1 2 3 4 5
3 more votes to show rating
add to favorites
launch autoscroll
font size
0
reset
guitar tuner
Autoscroll
slow
fast
+/-
esc
set tempo
stop
Help us to improve Ultimate-Guitar.com Take our survey!
×
Author
Difficulty
intermediate
There's no parts in this song, just this encore

G|---------------------------------|---------------------------------|
D|------------3---------------3----|------------3---------------3----|
A|--------3-5-------------3-5------|--------3-5-------------3-5------|
E|3---------------3----------------|3---------------3----------------|

G|------------3---------------3----|---------------------------------|
D|--------3-5-------------3-5------|------------3---------------3----|
A|3---------------3----------------|--------3-5-------------3-5------|
E|---------------------------------|3---------------3----------------|

G|---------------------------------|---------------------------------|
D|------------3---------------3----|------------3---------------3----|
A|--------3-5-------------3-5------|--------3-5-------------3-5------|
E|3---------------3----------------|3---------------3----------------|

G|------------3---------------3----|---------------------------------|
D|--------3-5-------------3-5------|------------3---------------3----|
A|3---------------3----------------|--------3-5-------------3-5------|
E|---------------------------------|3---------------3----------------|

G|------------5---------/-7--------|---------------------------------|
D|--------5-7----------------------|------------3---------------3----|
A|5---------------5---5------------|--------3-5-------------3-5------|
E|---------------------------------|3---------------3----------------|

G|---------------------------------|---------------------------------|
D|------------3---------------3----|------------3---------------3----|
A|--------3-5-------------3-5------|--------3-5-------------3-5------|
E|3---------------3----------------|3---------------3----------------|

G|------------3---------------3----|---------------------------------|
D|--------3-5-------------3-5------|------------3---------------3----|
A|3---------------3----------------|--------3-5-------------3-5------|
E|---------------------------------|3---------------3----------------|

G|---------------------------------|---------------------------------|
D|------------3---------------3----|------------3---------------3----|
A|--------3-5-------------3-5------|--------3-5-------------3-5------|
E|3---------------3----------------|3---------------3----------------|

G|------------3---------------3----|---------------------------------|
D|--------3-5-------------3-5------|------------3---------------3----|
A|3---------------3----------------|--------3-5-------------3-5------|
E|---------------------------------|3---------------3----------------|

G|------------5--------------------|------------5--------------------|
D|--------5-7-----5-------3--------|--------5-7-----5----------------|
A|5--------------------------------|5-----------------------5--------|
E|---------------------------------|----------------------------3----|

G|---------------------------------|---------------------------------|
D|--------3-------5----------------|---------------------------------|
A|5-----------------------3--------|5-------5-----------5---3---5----|
E|---------------------------------|---------------------------------|

G|---------------------------------|---------------------------------|
D|------------3---------------3----|------------3---------------3----|
A|--------3-5-------------3-5------|--------3-5-------------3-5------|
E|3---------------3----------------|3---------------3----------------|

G|---------------------------------|
D|------------3--------------------|  a little break
A|--------3-5----------------------|
E|3---------------3----------------|


G|---------------------------------|---------------------------------|
D|---------------------------------|---------------------------------|
A|---------------------------------|------------------------------1--|
E|---------------------------------|----------------------------3----|

2:08
G|---------------------------------|---------------------------------|
D|--------------5-----3---2---0----|------------3---------------3----|
A|--------3-5-3--------------------|--------3-5-------------3-5------|
E|3---------------3----------------|3---------------3----------------|

G|---------------------------------|------------3---------------3----|
D|------------3---------------3----|--------3-5-------------3-5------|
A|--------3-5-------------3-5------|3---------------3----------------|
E|3---------------3----------------|---------------------------------|

G|---------------------------------|---------------------------------|
D|------------3---5---3---2--------|------------3---------------3----|
A|--------3-5-----------------5----|--------3-5-------------3-5------|
E|3--------------------------------|3---------------3----------------|

G|---------------------------------|------------3---------------3----|
D|------------3---------------3----|--------3-5-------------3-5------|
A|--------3-5-------------3-5------|3---------------3----------------|
E|3---------------3----------------|---------------------------------|

G|---------------------------------|---------------------------------|
D|------------3----------/3--/3----|------------3---------------3----|
A|--------3-5----------------------|--------3-5-------------3-5------|
E|3--------------------------------|3---------------3----------------|

G|---------------------------------|------------3---------------3----|
D|------------3---------------3----|--------3-5-------------3-5------|
A|--------3-5-------------3-5------|3---------------3----------------|
E|3---------------3----------------|---------------------------------|

G|---------------------------------|---------------------------------|
D|------------3--------------------|------------3---------------3----|
A|--------3-5-------------1---1----|--------3-5-------------3-5------|
E|3---------------3---3------------|3---------------3----------------|

G|---------------------------------|------------3---------------3----|
D|------------3---------------3----|--------3-5-------------3-5------|
A|--------3-5-------------3-5------|3---------------3----------------|
E|3---------------3----------------|---------------------------------|

G|---------------------------------|---------------------------------|
D|------------3---------------3----|------------3---------------3----|
A|--------3-5-------------3-5------|--------3-5-------------3-5------|
E|3---------------3----------------|3---------------3----------------|

G|---------------------------------|------------3---------------3----|
D|------------3---------------3----|--------3-5-------------3-5------|
A|--------3-5-------------3-5------|3---------------3----------------|
E|3---------------3----------------|---------------------------------|

G|---------------------------------|---------------------------------|
D|------------3---5---3------------|---------------------------------|
A|--------3-5-------------5---3----|---------------------------------|
E|3--------------------------------|3--------------------------------|

G|---------------------------------|---------------------------------|
D|---------------------------------|---------------------------------|
A|---------------------------------|---------------------------------|
E|---------------------------------|3--------------------------------|

G|---------------------------------|---------------------------------|
D|---------------------------------|---------------------------------|
A|---------------------------------|---------------------------------|
E|3---------------3----------------|3---------------3----------------|

G|---------------------------------|---------------------------------|
D|---------------------------------|---------------------------------|
A|---------------------------------|---------------------------------|
E|3---------------3----------------|3---------------3----------------|

G|---------------------------------|---------------------------------|
D|---------------------------------|---------------------------------|
A|---------------------------------|---------------------------------|
E|3---------------3----------------|3---------------3----------------|

G|---------------------------------|---------------------------------|
D|---------------------------------|---------------------------------|
A|---------------------------------|---------------------------------|
E|3---------------3----------------|3---------------3----------------|

G|---------------------------------|---------------------------------|
D|---------------------------------|---------------------------------|
A|---------------------------------|---------------------------------|
E|3---------------3----------------|3---------------3----------------|

G|---------------------------------|---------------------------------|
D|---------------------------------|---------------------------------|
A|---------------------------------|---------------------------------|
E|3---------------3----------------|3---------------3----------------|

G|---------------------------------|---------------------------------|
D|---------------------------------|--------5---------------5--------|
A|---------------------------------|---------------------------------|
E|3---------------3----------------|3---------------3----------------|

G|---------------------------------|---------------------------------|
D|---------------------------------|------------3---------------3----|
A|--------5---------------1---0----|--------3-5-------------3-5------|
E|3---------------3----------------|3---------------3----------------|

G|---------------------------------|------------3---------------3----|
D|------------3---------------3----|--------3-5-------------3-5------|
A|--------3-5-------------3-5------|3---------------3----------------|
E|3---------------3----------------|---------------------------------|

G|---------------------------------|---------------------------------|
D|------------3---------------3--/-|5-------3---------------------/--|
A|--------3-5-------------3-5------|----------5-----3----------------|
E|3---------------3----------------|--------------------5---3--------|

G|---------------------------------|------------3---------------3----|
D|5-------3------------------------|--------3-5-------------3-5------|
A|----------5-----3-----------5----|3---------------3----------------|
E|--------------------5---3--------|---------------------------------|

G|---------------------------------|---------------------------------|
D|------------3---5-------3--------|---------------------------------|
A|--------3-5---------------5---3--|---------------------------------|
E|3--------------------------------|3--------------------------------|

G|---------------------------------|---------------------------------|
D|---------------------------------|---------------------------------|
A|---------------------------------|---------------------------------|
E|---------------------------------|---------------------------------|

G|---------------------------------|---------------------------------|
D|---------------------------------|---------------------------------|
A|---------------------------------|----------5---5-----0---1---3----|
E|---------------------------------|3-------3-------3----------------|

G|---------------------------------|------------3--------------------|
D|5-------5------------------------|--------3-5-------------3-5-3----|
A|----------5---5-----0---1---3----|3---------------3----------------|
E|----------------3----------------|---------------------------------|

G|---------------------------------|---------------------------------|
D|------------3--------------------|------------3---------------3----|
A|--------3-5-------------5---3----|--------3-5-------------3-5------|
E|3---------------3-----3----------|3---------------3----------------|

G|---------------------------------|---------------------------------|
D|---------------------------------|----------------------3----------|
A|---------------------------------|------------------------5---3----|
E|3--------------------------------|---------------------------------|

G|---------------------------------|---------------------------------|
D|----------------------------3----|------------3---------------3----|
A|------------------------3-5------|--------3-5-------------3-5------|
E|3---5---3-------3----------------|3---------------3----------------|

G|---------------------------------|------------3---------------3----|
D|------------3---------------3----|--------3-5-------------3-5------|
A|--------3-5-------------3-5------|3---------------3----------------|
E|3---------------3----------------|---------------------------------|

G|---------------------------------|---------------------------------|
D|------------3---------------3----|------------3---------------3----|
A|--------3-5-------------3-5------|--------3-5-------------3-5------|
E|3---------------3----------------|3---------------3----------------|

G|---------------------------------|------------3---------------3----|
D|------------3---------------3----|--------3-5-------------3-5------|
A|--------3-5-------------3-5------|3---------------3----------------|
E|3---------------3----------------|---------------------------------|

G|-------/5------------|
D|-----------/5--/5----|
A|---------------------|
E|3--------------------|

Fade-out :
G|---------------------------------|------------3---------------3----|
D|------------3---------------3----|--------3-5-------------3-5------|
A|--------3-5-------------3-5------|3---------------3----------------|
E|3---------------3----------------|---------------------------------|

G|------------3---------------3----|
D|--------3-5-------------3-5------|
A|3---------------3----------------|
E|---------------------------------|


***********************************
/ = slide up
***********************************
Suggest correction
Give kudos to tab author, rate the tab!
1 2 3 4 5
comments
print report bad tab
guest
You may want to rate the tab now too:
select rating
Wanna post a correction for this tab? Suggest correction