Oops, an error
Loading. Please wait.

Coquette bass

13 views 1 this week
no commentswrite comment
1 2 3 4 5
3 more votes to show rating
add to favorites
×
Save as Personal and add changes to this tab that will be seen only by you. Learn more ›
×
You can save this tab as Personal to edit and correct it or add notes. All changes will be seen only by you. Learn more »
launch autoscroll
font size
0
reset
guitar tuner
edit
Autoscroll
slow
fast
+/-
esc
set tempo
stop
[Intro]
G|---------------------------------|---------------------------------|
D|---------------------------------|---------------------------------|
A|---------------------------------|---------------------------------|
E|---------------------------------|---------------------------------|

[Verse]
G|---------------------------------|---------------------------------|
D|--------------2-5-------2---5----|--------------2-5-------2---5----|
A|3--------------------------------|3--------------------------------|
E|---------------------------------|---------------------------------|

G|---------------------------------|---------------------------------|
D|5--------------------------------|---------------------------------|
A|--------------2-5-------2---5----|--------------2-5-------2---5----|
E|---------------------------------|3--------------------------------|

G|---------------------------------|---------------------------------|
D|5--------------------------------|---------------------------------|
A|--------------2-5-------2---5----|--------------2-5-------2---5----|
E|---------------------------------|3--------------------------------|

G|---------------------------------|---------------------------------|
D|--------------2-5-------2---3----|5-----5-3------------------------|
A|3--------------------------------|----------------7-----7-5--------|
E|---------------------------------|---------------------------------|

G|---------------------------------|---------------------------------|
D|--------------2-5-------2---5----|--------------2-5-------2---5----|
A|3--------------------------------|3--------------------------------|
E|---------------------------------|---------------------------------|

G|---------------------------------|---------------------------------|
D|---------------------------------|---------------------------------|
A|--------------2-5-------2---5----|--------------2-5-------2---5----|
E|3--------------------------------|3--------------------------------|

G|---------------------------------|---------------------------------|
D|---------------------------------|---------------------------------|
A|--------------2-5-------2---5----|--------------2-5-------2---5----|
E|3--------------------------------|3--------------------------------|

G|---------------------------------|5-----5--------------------------|
D|--------------2-5-------2---3----|--------7-------5----------------|
A|3--------------------------------|------------------------7--------|
E|---------------------------------|---------------------------------|

[Chorus]
G|---------------------------------|---------------------------------|
D|---------------------------------|---------------------------------|
A|3-------------3-3----------------|3-------------3-3----------------|
E|------------------------------3--|----------------------------3-2--|

G|---------------------------------|---------------------------------|
D|---------------------------------|--------3-----3-2----------------|
A|---------------------------------|----------------------7-6-----6--|
E|1-------------1-1-------------1--|1-----1--------------------------|

G|---------------------------------|---------------------------------|
D|--------------4-7--------4---7---|--------------4-7-------4---7----|
A|5--------------------------------|5--------------------------------|
E|---------------------------------|---------------------------------|

G|---------------------------------|---------------------------------|
D|---------------------------------|---------------------------------|
A|--------------2-5-------2---5----|---------------------------------|
E|3--------------------------------|3-------------3-3-------3--------|

[Verse]
G|---------------------------------|---------------------------------|
D|--------------2-5-------2---5----|--------------2-5-------2---5----|
A|3--------------------------------|3--------------------------------|
E|---------------------------------|---------------------------------|

G|---------------------------------|---------------------------------|
D|---------------------------------|---------------------------------|
A|--------------2-5-------2---5----|--------------2-5-------2---5----|
E|3--------------------------------|3--------------------------------|

G|---------------------------------|---------------------------------|
D|---------------------------------|---------------------------------|
A|--------------2-5-------2---5----|--------------2-5-------2---5----|
E|3--------------------------------|3--------------------------------|

G|---------------------------------|---------------------------------|
D|--------------2-5-------2---3----|5-----5-3------------------------|
A|3--------------------------------|----------------7-----7-5--------|
E|---------------------------------|---------------------------------|

G|---------------------------------|--------5------------------------|
D|--------------2-5-------2---5----|--------------2-5-------2-3-5----|
A|3--------------------------------|3--------------------------------|
E|---------------------------------|---------------------------------|

G|---------------------------------|---------------------------------|
D|---------------------------------|---------------------------------|
A|--------------2-5-------2---5----|--------7-------5-------2---5----|
E|3--------------------------------|3--------------------------------|

G|---------------------------------|---------------------------------|
D|---------------------------------|---------------------------------|
A|--------------2-5-------2---5----|--------------2-5---------0-2----|
E|3--------------------------------|3-----------------------3--------|

G|---------------------------------|5-----5--------------------------|
D|--------------2-5-------2---3----|--------7-------5----------------|
A|3--------------------------------|------------------------7--------|
E|---------------------------------|---------------------------------|

[Chorus]
G|---------------------------------|---------------------------------|
D|---------------------------------|---------------------------------|
A|3-------------3-3----------------|3-------------3-3----------------|
E|------------------------------3--|----------------------------3-2--|

G|---------------------------------|---------------------------------|
D|---------------------------------|--------3-----3-2----------------|
A|---------------------------------|----------------------7-6-----6--|
E|1-------------1-1-------------1--|1-----1--------------------------|

G|---------------------------------|---------------------------------|
D|--------------4-7--------4---7---|--------------4-7-------4---7----|
A|5-----5-5------------------------|5--------------------------------|
E|---------------------------------|---------------------------------|

G|---------------------------------|---------------------------------|
D|---------------------------------|---------------------------------|
A|--------------2-5-------2---5----|---------------------------------|
E|3-----3-3------------------------|3-------------3-3-------3--------|

[Verse]
G|---------------------------------|---------------------------------|
D|--------------2-5-------2---5----|--------------2-5-------2---5----|
A|3--------------------------------|3--------------------------------|
E|---------------------------------|---------------------------------|

G|---------------------------------|---------------------------------|
D|---------------------------------|---------------------------------|
A|--------------2-5-------2---5----|--------------2-5-------2---5----|
E|3--------------------------------|3--------------------------------|

G|---------------------------------|---------------------------------|
D|---------------------------------|---------------------------------|
A|--------------2-5-------2---5----|--------------2-5-------2---5----|
E|3--------------------------------|3--------------------------------|

G|---------------------------------|---------------------------------|
D|--------------2-3---3-3-3-2-0----|---------------------------------|
A|3--------------------------------|3-----------4---3----------------|
E|---------------------------------|---------------------------------|


            
            
Suggest correction
Creating personal tab
Creating personal tab
You can edit any tab online and save it as your Personal.

You can edit, replace or remove any tab part or add personal notes – all changes will be seen only by you.

Personal tabs can be accessed anytime from any device, even offline.
Learn more »
Give kudos to tab author, rate the tab!
1 2 3 4 5
comments
print report bad tab
guest
You may want to rate the tab now too:
select rating
Wanna post a correction for this tab? Suggest correction