Oops, an error
Loading. Please wait.

Country Dreamer Bass Tab

28 views 1 this week
no commentswrite comment
1 2 3 4 5
3 more votes to show rating
add to favorites
launch autoscroll
font size
0
reset
guitar tuner
Autoscroll
slow
fast
+/-
esc
set tempo
stop
Help us to improve Ultimate-Guitar.com Take our survey!
×
[Intro]
G|---------------------------------|---------------------------------|
D|---------------------------------|---------------------------------|
A|---------------------------------|---------------------------------|
E|---------------------------------|----------------------------3----|

G|---------------------------------|---------------------------------|
D|---------------------------------|---------------------------------|
A|---------------------------------|---------------------------------|
E|1---------------------------/----|8--------------------------------|

G|---------------------------------|---------------------------------|
D|---------------------------------|---------------------------------|
A|---------------------------------|---------------------------------|
E|1---------------------------/----|8--------------------------------|

G|---------------------------------|---------------------------------|
D|---------------------------------|---------------------------------|
A|3--------------------------------|---------------------------------|
E|---------------------------------|---------------------------------|

G|---------------------------------|---------------------------------|
D|---------------------------------|---------------------------------|
A|3--------------------------------|------------------------0---2----|
E|---------------------------------|--------------------3------------|

[Verse 1]
G|---------------------------------|---------------------------------|
D|--------0---2---3-------2---0----|---------------------------------|
A|3--------------------------------|3---------------3-------2---0----|
E|---------------------------------|--------3------------------------|

G|---------------------------------|---------------------------------|
D|---------------------------------|--------2------------------------|
A|------------------------0---2----|3-----------3-----------0---2----|
E|3-------3-------3----------------|----------------3----------------|

G|---------------------------------|---------------------------------|
D|--------0---2---3-------2---0----|---------------------------------|
A|3--------------------------------|3-------3-----3-0-------0------0-|
E|---------------------------------|---------------------------------|

G|---------------------------------|---------------------------------|
D|---------------------------------|---------------------------------|
A|5-------5-----5------------------|3-------3------------------------|
E|----------------3-------3------3-|----------------5-------5------5-|

G|---------------------------------|---------------------------------|
D|---------------------------------|---------------------------------|
A|5-------5-------------------0----|3-------3---------------0---2----|
E|----------------3-------3--------|----------------3---3------------|

[Verse 2]
G|---------------------------------|---------------------------------|
D|--------0---2---3-------2---0----|---------------------------------|
A|3--------------------------------|3---------------3-------2---0----|
E|---------------------------------|--------3------------------------|

G|---------------------------------|---------------------------------|
D|---------------------------------|--------2------------------------|
A|------------------------0---2----|3-----------3-----------0---2----|
E|3-------3-------3----------------|----------------3----------------|

G|---------------------------------|---------------------------------|
D|--------0---2---3-------2---0----|---------------------------------|
A|3--------------------------------|3-------3-----3-0-------0------0-|
E|---------------------------------|---------------------------------|

G|---------------------------------|---------------------------------|
D|---------------------------------|----------------------------5----|
A|5-------5-----5------------------|3---------------3-------7--------|
E|----------------3-------3--------|--------3------------------------|

[Chorus]
G|---------------------------------|---------------------------------|
D|7-------7-------7-------7------7-|5-------5-------5-------5------5-|
A|---------------------------------|---------------------------------|
E|---------------------------------|---------------------------------|

G|---------------------------------|---------------------------------|
D|3-------3-------3-------3--------|2------------------------------5/|
A|---------------------------------|--------3---------------3--------|
E|---------------------------------|----------------5----------------|

G|---------------------------------|---------------------------------|
D|7-------7-------7-------7------7-|5-------5-------5-------5------5-|
A|---------------------------------|---------------------------------|
E|---------------------------------|---------------------------------|

G|---------------------------------|---------------------------------|
D|3-------3-------3-------3--------|---------------------------------|
A|---------------------------------|---------------------------------|
E|---------------------------------|---------------------------------|

[Verse 3]
G|---------------------------------|---------------------------------|
D|--------0---2---3-------2---0----|---------------------------------|
A|3--------------------------------|3---------------3-------2---0----|
E|---------------------------------|--------3------------------------|

G|---------------------------------|---------------------------------|
D|---------------------------------|--------2------------------------|
A|------------------------0---2----|3-----------3-----------0---2----|
E|3-------3-------3----------------|----------------3----------------|

G|---------------------------------|---------------------------------|
D|--------0---2---3-------2---0----|---------------------------------|
A|3--------------------------------|3-------3-----3-0-------0------0-|
E|---------------------------------|---------------------------------|

G|---------------------------------|---------------------------------|
D|---------------------------------|---------------------------------|
A|5-------5-----5------------------|3-------3------------------------|
E|----------------3-------3------3-|----------------5-------5--------|

G|---------------------------------|---------------------------------|
D|---------------------------------|----------------------------5----|
A|5-------5-----5------------------|3---------------3-------7--------|
E|----------------3-------3--------|--------3------------------------|

[Chorus]
G|---------------------------------|---------------------------------|
D|7---------------7----------------|5---------------5-----5-----5----|
A|--------7---------------7--------|--------5---------------5--------|
E|---------------------------------|---------------------------------|

G|---------------------------------|----------------------------5----|
D|3---------------3----------------|2---------------7-------7--------|
A|--------3---------------3--------|--------3------------------------|
E|---------------------------------|---------------------------------|

G|---------------------------------|---------------------------------|
D|7---------------7----------------|5---------------5-----------17\--|
A|--------7---------------7--------|--------5------------------------|
E|---------------------------------|---------------------------------|

G|---------------------------------|---------------------------------|
D|3---------------3----------------|3--------------------------------|
A|--------3---------------3--------|--------3------------------------|
E|---------------------------------|----------------3----------------|

[Verse 4]
G|5--------------------------------|---------------------------------|
D|--------0---2---3-------2---0----|---------------------------------|
A|---------------------------------|3---------------3-------2---0----|
E|---------------------------------|--------3------------------------|

G|---------------------------------|---------------------------------|
D|--------5------------------------|--------2------------------------|
A|------------------------0--------|3-----------3-----------0---2----|
E|3---------------3----------------|----------------3----------------|

G|---------------------------------|---------------------------------|
D|--------0---2---3-------2---0----|---------------------------------|
A|3--------------------------------|3-------3-----3-0-------0------0-|
E|---------------------------------|---------------------------------|

G|---------------------------------|---------------------------------|
D|---------------------------------|---------------------------------|
A|5-------5-----5------------------|3-------3------------------------|
E|----------------3-------3------3-|----------------5-------5--------|

G|---------------------------------|---------------------------------|
D|---------------------------------|---------------------------------|
A|5-------5-----5------------------|3-------3---2--------------------|
E|----------------3-------3------3-|----------------5-------5---5----|

G|---------------------------------|---------------------------------|
D|---------------------------------|------------5--------------------|
A|5-------5------------------------|----5---7---------------3--------|
E|----------------3-------3--------|3---------------3----------------|

************************************

| /  Slide up
| \  Slide down

************************************
Suggest correction
Give kudos to tab author, rate the tab!
1 2 3 4 5
comments
print report bad tab
guest
You may want to rate the tab now too:
select rating
Wanna post a correction for this tab? Suggest correction