Oops, an error
Loading. Please wait.

Darkroom Bass Tab

7 views 3 this week
no commentswrite comment
1 2 3 4 5
3 more votes to show rating
add to favorites
launch autoscroll
font size
0
reset
guitar tuner
Autoscroll
slow
fast
+/-
esc
set tempo
stop
Help us to improve Ultimate-Guitar.com Take our survey!
×
Bass starts at 00:40

Chorus :
G|---------------------------------|---------------------------------|
D|----------------3-------1---3----|----------------3-------1---3----|
A|---------------------------------|---------------------------------|
E|1-----------1--------------------|1-----------1--------------------|

G|---------------------------------|---------------------------------|
D|----------------3-------1---3----|---------------------------------|
A|---------------------------------|---------------------------------|
E|1-----------1--------------------|1--------------------------------|

G|---------------------------------|---------------------------------|
D|----------------3-------1---3----|----------------3-------1---3----|
A|---------------------------------|---------------------------------|
E|1-----------1--------------------|1-----------1--------------------|

G|----------------1-------0--------|---------------------------------|
D|----------------------------3----|---------------------------------|
A|---------------------------------|---------------------------------|
E|1-----------1--------------------|1--------------------------------|

G|---------------------------------|----------------1-------0--------|
D|----------------3-------1---3----|----------------------------3----|
A|---------------------------------|---------------------------------|
E|1-----------1--------------------|1-----------1--------------------|

G|---------------------------------|---------------------------------|
D|----------------3-------1---3----|----------------3----------------|
A|---------------------------------|------------5-------5---6--------|
E|1-----------1--------------------|1--------------------------------|

G|---------------------------------|----------------1-------0--------|
D|----------------3-------1---3----|----------------------------3----|
A|---------------------------------|---------------------------------|
E|1-----------1--------------------|1-----------1--------------------|

G|---------------------------------|---------------------------------|
D|----------------3-------1---3----|---------------------------------|
A|---------------------------------|---------------------------------|
E|1-----------1--------------------|1--------------------------------|

G|---------------------------------|----------------1-------0--------|
D|----------------3-------1---3----|----------------------------3----|
A|---------------------------------|---------------------------------|
E|1-----------1--------------------|1-----------1--------------------|

G|---------------------------------|---------------------------------|
D|----------------3-------1---3----|---------------------------------|
A|---------------------------------|---------------------------------|
E|1-----------1--------------------|1--------------------------------|

G|---------------------------------|----------------1-------0--------|
D|----------------3-------1---3----|----------------------------3----|
A|---------------------------------|---------------------------------|
E|1-----------1--------------------|1-----------1--------------------|

G|---------------------------------|---------------------------------|
D|----------------3-------1---3----|---------------------------------|
A|---------------------------------|---------------------------------|
E|1-----------1--------------------|1--------------------------------|

G|---------------------------------|----------------1-------0--------|
D|----------------3-------1---3----|----------------------------3----|
A|---------------------------------|---------------------------------|
E|1-----------1--------------------|1-----------1--------------------|

G|---------------------------------|---------------------------------|
D|----------------3-------1---3----|----------------3-------1--------|
A|---------------------------------|---------------------------------|
E|1-----------1--------------------|1-----------1--------------------|

G|---------------------------------|----------------1-------0--------|
D|----------------3-------1---3----|----------------------------3----|
A|---------------------------------|---------------------------------|
E|1-----------1--------------------|1-----------1--------------------|

G|---------------------------------|---------------------------------|
D|----------------3-------1---3----|--------3-------1----------------|
A|---------------------------------|---------------------------------|
E|1-----------1--------------------|1--------------------------------|

Verse :
G|---------------------------------|----------------1-------0--------|
D|----------------3-------1---3----|----------------------------3----|
A|---------------------------------|---------------------------------|
E|1-----------1--------------------|1-----------1--------------------|

G|---------------------------------|---------------------------------|
D|----------------3-------1---3----|---------------------------------|
A|---------------------------------|---------------------------------|
E|1-----------1--------------------|1--------------------------------|

G|---------------------------------|---------------------------------|
D|----------------3-------1---3----|----------------3-------1---3----|
A|---------------------------------|---------------------------------|
E|1-----------1--------------------|1-----------1--------------------|

G|---------------------------------|---------------------------------|
D|----------------3-------1---3----|---------------------------------|
A|---------------------------------|---------------------------------|
E|1-----------1--------------------|1--------------------------------|

Chorus :
G|---------------------------------|----------------1-------0--------|
D|----------------3-------1---3----|----------------------------3----|
A|---------------------------------|---------------------------------|
E|1-----------1--------------------|1-----------1--------------------|

G|---------------------------------|---------------------------------|
D|----------------3-------1---3----|----------------3-------1---3----|
A|---------------------------------|---------------------------------|
E|1-----------1--------------------|1-----------1--------------------|

G|---------------------------------|----------------1-------0--------|
D|----------------3-------1---3----|----------------------------3----|
A|---------------------------------|---------------------------------|
E|1-----------1--------------------|1-----------1--------------------|

G|---------------------------------|------------------------10--\----|
D|----------------3-------1---3----|---------------------------------|
A|---------------------------------|---------------------------------|
E|1-----------1--------------------|1--------------------------------|

G|---------------------------------|----------------1-------0--------|
D|------------------------1---3----|----------------------------3----|
A|---------------------------------|---------------------------------|
E|1--------------------------------|1-----------1--------------------|

G|---------------------------------|---------------------------------|
D|----------------3-------1---3----|---------------------------------|
A|---------------------------------|---------------------------------|
E|1-----------1--------------------|1--------------------------------|

G|---------------------------------|----------------1-------0--------|
D|----------------3-------1---3----|----------------------------3----|
A|---------------------------------|---------------------------------|
E|1-----------1--------------------|1-----------1--------------------|

G|---------------------------------|---------------------------------|
D|----------------3----------------|3---------------3----------------|
A|---------------------------------|---------------------------------|
E|1-----------1--------------------|---------------------------------|

G|---------------------------------|---------------------------------|
D|----------------3-------1---3----|3---------------3-------3--------|
A|---------------------------------|---------------------------------|
E|------------1--------------------|--------1------------------------|

G|---------------------------------|---------------------------------|
D|---------------------------------|---------------------------------|
A|3-------1------------------------|---------------------------------|
E|----------------4-------3--------|2-------1------------------------|
Suggest correction
Give kudos to tab author, rate the tab!
1 2 3 4 5
comments
print report bad tab
guest
You may want to rate the tab now too:
select rating
Wanna post a correction for this tab? Suggest correction