Oops, an error
Loading. Please wait.

Deliver Your Children bass

64 views 1 this week
no commentswrite comment
1 2 3 4 5
1 last vote to show rating
add to favorites
×
Save as Personal and add changes to this tab that will be seen only by you. Learn more ›
×
You can save this tab as Personal to edit and correct it or add notes. All changes will be seen only by you. Learn more »
launch autoscroll
font size
0
reset
guitar tuner
edit
Autoscroll
slow
fast
+/-
esc
set tempo
stop
Author
Difficulty
Intro :
G|---------------------------------|---------------------------------|
D|7---------------7----------------|7---------------7----------------|
A|--------7---------------7--------|--------7---------------7--------|
E|---------------------------------|---------------------------------|

G|---------------------------------|---------------------------------|
D|7---------------7----------------|7---------------7----------------|
A|--------7---------------7--------|--------7---------------7--------|
E|---------------------------------|---------------------------------|

Verse 1 :
G|---------------------------------|---------------------------------|
D|7---------------7----------------|7---------------5----------------|
A|--------7---------------7--------|--------7---------------5--------|
E|---------------------------------|---------------------------------|

G|---------------------------------|---------------------------------|
D|7---------------7----------------|7--------------------------------|
A|--------7---------------7--------|--------7-------5----------------|
E|---------------------------------|------------------------5--------|

G|---------------------------------|---------------------------------|
D|7---------------7----------------|7---------------5----------------|
A|--------7---------------7--------|--------7---------------5--------|
E|---------------------------------|---------------------------------|

G|---------------------------------|---------------------------------|
D|---------------------------------|7--------------------------------|
A|7-----------------------7--------|--------7-------7----------------|
E|--------7---6---5----------------|------------------------7--------|

G|---------------------------------|----------------|
D|----------------7----------------|7-----7---7-----| *4 instead of 8
A|------------------------7--------|--------7-------|
E|0-------/---7--------------------|----------------|

Chorus :
G|---------------------------------|---------------------------------|
D|5-------4------------------------|----------------------------2----|
A|----------------7------7---------|3-------2-------0-----2-3--------|
E|------------------------7---3----|---------------------------------|

G|---------------------------------|---------------------------------|
D|5-------4------------------------|---------------------------------|
A|----------------7------7---\-----|---------------------------------|
E|---------------------------------|3-------2-------0----------------|

G|---------------------------------|
D|---------------------------------|
A|----------------3------2---------|
E|0--------------------------------|

Interlude : 
G|---------------------------------|---------------------------------|
D|7---------------7----------------|7---------------7----------------|
A|--------6/7------------6/7-------|--------6/7-------------6/7------|
E|---------------------------------|---------------------------------|

Verse 2 :
G|---------------------------------|---------------------------------|
D|7---------------7----------------|7---------------5----------------|
A|--------7---------------7--------|--------7---------------5--------|
E|---------------------------------|---------------------------------|

G|---------------------------------|---------------------------------|
D|7---------------7----------------|7--------------------------------|
A|--------7---------------7--------|--------7-------5----------------|
E|---------------------------------|------------------------5--------|

G|---------------------------------|---------------------------------|
D|7---------------7----------------|7---------------5----------------|
A|--------7---------------7--------|--------7---------------5--------|
E|---------------------------------|---------------------------------|

G|---------------------------------|---------------------------------|
D|---------------------------------|7--------------------------------|
A|7-----------------------7--------|--------7-------7----------------|
E|--------7-------5----------------|------------------------7--------|

G|---------------------------------|----------------|
D|---------------------------------|----------------| *4 instead of 8
A|---------------------------------|----------------|
E|0-------/---7---5-------0--------|5-------0-------|

Chorus :
G|---------------------------------|---------------------------------|
D|5-------4------------------------|----------------------------2----|
A|----------------7------7---------|3-------2-------0-----2-3--------|
E|------------------------7---3----|---------------------------------|

G|---------------------------------|---------------------------------|
D|5-------4------------------------|---------------------------------|
A|----------------7------7---\-----|---------------------------------|
E|---------------------------------|3-------2-------0----------------|

G|---------------------------------|
D|---------------------------------|
A|----------------3------2---------|
E|0--------------------------------|

Interlude : 
G|---------------------------------|---------------------------------|
D|7---------------7----------------|7---------------7----------------|
A|--------6/7------------6/7-------|--------6/7-------------6/7------|
E|---------------------------------|---------------------------------|

G|---------------------------------|---------------------------------|
D|7---------------7----------------|7---------------7----------------|
A|--------6/7------------6/7-------|--------6/7-------------6/7------|
E|---------------------------------|---------------------------------|

Verse 3 :
G|---------------------------------|---------------------------------|
D|---------------------------------|---------------------------------|
A|5---------------5----------------|5---------------3----------------|
E|--------5--------------5---------|--------5---------------3--------|

G|---------------------------------|---------------------------------|
D|---------------------------------|----------------5----------------|
A|5---------------5----------------|5-----------------------2---3----|
E|--------5--------------5---------|--------5------------------------|

G|---------------------------------|---------------------------------|
D|---------------------------------|---------------------------------|
A|5---------------5----------3-----|5---------------3----------------|
E|--------5--------------5---------|--------5---------------3--------|

G|---------------------------------|---------------------------------|
D|---------------------------------|----------------7----------------|
A|----------------5----------------|5-----------5-----------7--------|
E|5-------0---0----------5---------|--------5------------------------|

G|---------------------------------|---------------------------------|
D|7--------------------------------|---------------------------------|
A|--------7---0---5----------------|5-----------3---5----------------|
E|-----------------------5---------|--------5---------------5--------|

G|---------------------------------|---------------------------------|
D|---------------------------------|---------------------------------|
A|5-----------3---5----------------|3-----------3-/-5----------------|
E|--------5--------------5---------|--------3---------------5--------|

G|---------------------------------|---------------------------------|
D|---------------------------------|5-5-5----------------------------|
A|5-----------3---5----------5-----|--------2---3---5----------------|
E|--------5--------------5---------|------------------------5--------|

G|---------------------------------|---------------------------------|
D|---------------------------------|---------------------------------|
A|5-----------3---5----------5-----|3--------------------------------|
E|--------5--------------5---------|--------3---4---5-------0--------|

G|---------------------------------|---------------------------------|
D|---------------------------------|----------------7-------7--------|
A|5---------------5----------5-----|--------7-------------------3----|
E|--------5--------------5---------|5--------------------------------|

G|---------------------------------|
D|---------------------------------|
A|5---------------5-5----5-5-------|
E|--------5------------------------|

Chorus :
G|---------------------------------|---------------------------------|
D|5-------4------------------------|----------------------------2----|
A|----------------7------7---------|3-------2-------0-----2-3--------|
E|------------------------7---3----|---------------------------------|

G|---------------------------------|---------------------------------|
D|5-------4------------------------|---------------------------------|
A|----------------7----7-----------|---------------------------------|
E|-----------------------7----2----|3-------2-------0-----------3----|

G|---------------------------------|
D|---------------------------------|
A|----------------3------2---------|
E|0--------------------------------|

Solo : 
G|---------------------------------|---------------------------------|
D|7---------------7----------------|7---------------7----------------|
A|--------6/7------------6/7-------|--------6/7-------------6/7------|
E|---------------------------------|---------------------------------|

G|---------------------------------|---------------------------------|
D|7---------------7----------------|7---------------5----------------|
A|--------6/7------------7---------|--------7---------------5--------|
E|---------------------------------|---------------------------------|

G|---------------------------------|---------------------------------|
D|7-----7---------7----------------|7--------------------------------|
A|--------7---------------7--------|--------7-------5----------------|
E|---------------------------------|------------------------5--------|

G|---------------------------------|---------------------------------|
D|7---------------7----------------|7---------------5----------------|
A|--------7---------------7--------|--------7---------------5--------|
E|---------------------------------|---------------------------------|

G|---------------------------------|---------------------------------|
D|---------------------------------|7--------------------------------|
A|7-----------------------7--------|--------7-------7----------------|
E|--------7\3-----5----------------|------------------------7--------|

G|---------------------------------|----------------|
D|----------------7----------------|----------------| *4 instead of 8
A|7-----------------------7-\-3----|----------------|
E|--------6/7----------------------|5---------------|

Chorus :
G|---------------------------------|---------------------------------|
D|5-------4------------------------|----------------------------2----|
A|----------------7------7-5-------|3-------2-------0-----2-3--------|
E|---------------------------0-5---|---------------------------------|

G|---------------------------------|---------------------------------|
D|5-------4------------------------|---------------------------------|
A|----------------7----7-----------|---------------------------------|
E|-----------------------7---------|3-------2-------0-----------/-7--|

G|---------------------------------|
D|---------------------------------|
A|7-7-7-7-7-------3------2---------|
E|---------------------------------|

Outro :
G|---------------------------------|---------------------------------|
D|7---------------7----------------|7---------------7----------------|
A|--------6/7------------6/7-------|--------6/7-------------6/7------|
E|---------------------------------|---------------------------------|

G|---------------------------------|---------------------------------|
D|7---------------7----------------|7---------------7----------------|
A|--------6/7------------6/7-------|--------6/7-------------6/7--\---|
E|---------------------------------|---------------------------------|

G|---------------------------------|---------------------------------|
D|----------------7----------------|7---------------5----------------|
A|0-------6/7------------6/7---\---|--------6/7-------------5--------|
E|---------------------------------|---------------------------------|

G|---------------------------------|---------------------------------|
D|---------------------------------|7--------------------------------|
A|7---------------------------6/7--|---------------------------------|
E|----------6/7---5----------------|----------------0----------------|

G|---------------------------------|---------------------------------|
D|---------------------------------|---------------------------------|
A|---------------------------------|---------------------------------|
E|----------/-----5----------------|----------------0----------------|

            
            
Suggest correction
Creating personal tab
Creating personal tab
You can edit any tab online and save it as your Personal.

You can edit, replace or remove any tab part or add personal notes – all changes will be seen only by you.

Personal tabs can be accessed anytime from any device, even offline.
Learn more »
Give kudos to tab author, rate the tab!
1 2 3 4 5
comments
print report bad tab
guest
You may want to rate the tab now too:
select rating
Wanna post a correction for this tab? Suggest correction