Oops, an error
Loading. Please wait.

Demons Dance Bass Tab

10 views 3 this week
no commentswrite comment
1 2 3 4 5
3 more votes to show rating
add to favorites
launch autoscroll
font size
0
reset
guitar tuner
Autoscroll
slow
fast
+/-
esc
set tempo
stop
Help us to improve Ultimate-Guitar.com Take our survey!
×
Verse 1 : 00:10
G|---------------------------------|---------------------------------|
D|---------------------------------|---------------------------------|
A|---------------------------------|---------------------------------|
E|3---------------5----------------|3---------------5----------------|

G|---------------------------------|---------------------------------|
D|---------------------------------|---------------------------------|
A|---------------------------------|---------------------------------|
E|3---------------5----------------|3---------------5-----------5----|

G|---------------------------------|---------------------------------|
D|---------------------------------|---------------------------------|
A|---------------------------------|---------------------------------|
E|3---------------5-----------5----|3---------------5---5------------|

G|---------------------------------|---------------------------------|
D|---------------------------------|---------------------------------|
A|---------------------------------|------------------------5--------|
E|3-----------3---5-----------5----|3-------5-------6---7------------|

G|---------------------------------|---------------------------------|
D|---------------------------------|---------------------------------|
A|----------------3----------------|----------------5-------5--------|
E|1--------------------------------|3---3-------3--------------------|

G|---------------------------------|---------------------------------|
D|---------------------------------|------------------------4---7----|
A|---------------------------------|5---5---5---5---5---5------------|
E|1-----------1---3----------------|---------------------------------|

G|7---5----------------------------|
D|--------7---5--------------------|
A|----------------5----------------|
E|---------------------------------|

Chorus :
G|---------------------------------|---------------------------------|
D|---------------------------------|---------------------------------|
A|------------0-2-3----------------|------------0-2-3----------------|
E|3-----------------------0--------|3-------------------0---1---2----|

G|---------------------------------|---------------------------------|
D|---------------------------------|------------------------4--------|
A|------------2---3-----------3----|5-------5-------5----------------|
E|3--------------------------------|---------------------------------|

G|---------------------------------|---------------------------------|
D|5-------\------------------------|------------------------3---5----|
A|--------------2-3-----------3----|-------(0)--2---3---5------------|
E|---------------------------------|3--------------------------------|

G|---------------------------------|---------------------------------|
D|---------------------------------|---------------------------------|
A|--------(0)-2---3-----------3----|5-------5-------5-------5--------|
E|3--------------------------------|---------------------------------|

G|---------------------------------|
D|---------------------------------|
A|5---5---5---5---5----------------|
E|---------------------------------|

Interlude :
G|---------------------------------|---------------------------------|
D|---------------------------------|--------------------2---3--------|
A|----0---2---3---5---5------------|----0---2---3---5----------------|
E|3--------------------------------|3--------------------------------|

G|---------------------------------|---------------------------------|
D|---------------------------------|--------------------2---3--------|
A|----0---2---3---5---5------------|----0---2---3---5----------------|
E|3--------------------------------|3--------------------------------|

G|------------------------------------------|
D|3-------3-------3-----/-12--12--12--12----|*10 bar instead of 8 
A|------------------------------------------|
E|------------------------------------------|

Chorus :
G|---------------------------------|---------------------------------|
D|---------------------------------|---------------------------------|
A|------------0-2-3----------------|------------0-2-3---3---3---4----|
E|3-------------------0---1---2----|3--------------------------------|

G|---------------------------------|---------------------------------|
D|---------------------------------|---------------------------------|
A|------------0-2-3----------------|--------2-------3----------------|
E|3-------------------0---1---2----|3-------------------0---1---2----|

G|---------------------------------|---------------------------------|
D|---------------------------------|---------------------------------|
A|------------2---3----------------|------------0-2-3-----3h5-3------|
E|3-------------------0---1---2----|3--------------------------------|

G|---------------------------------|---------------------------------|
D|---------------------------------|----------------------------5-\--|
A|--------0---2---3---1---3--------|--------0---2---3---3---5--------|
E|3--------------------------------|3---3----------------------------|

G|---------------------------------|---------------------------------|
D|---------------------------------|---------------------------------|
A|--------0---2---3----------------|--------2-------3---/---5--------|
E|3-------------------0---1---2----|3--------------------------------|

G|---------------------------------|---------------------------------|
D|---------------------------------|---------------------------------|
A|--------2-------3----------------|---------------------------------|
E|3-------------------0---1---2----|3--------------------------------|

G|---------------------------------|---------------------------------|
D|---------------------------------|---------------------------------|
A|---------------------------------|---------------------------------|
E|---------------------------------|---------------------------------|

Verse 3 :
G|---------------------------------|---------------------------------|
D|---------------------------------|---------------------------------|
A|---------------------------------|---------------------------------|
E|3---------------5---5------------|3---------------5---5------------|

G|---------------------------------|---------------------------------|
D|---------------------------------|---------------------------------|
A|---------------------------------|---------------------------------|
E|3---------------5----------------|3---------------5---5------------|

G|---------------------------------|---------------------------------|
D|---------------------------------|---------------------------------|
A|---------------------------------|---------------------------------|
E|3---------------5----------------|3---------------5---5------------|

G|---------------------------------|---------------------------------|
D|---------------------------------|---------------------------------|
A|---------------------------------|---------------------------------|
E|3---------------5----------------|3---------------5---5---3---2----|

G|---------------------------------|---------------------------------|
D|---------------------------------|---------------------------------|
A|----------------3-----------3----|----------------5-------5--------|
E|1-----------1--------------------|3-----------3--------------------|

G|---------------------------------|---------------------------------|
D|---------------------------------|------------------------4---7----|
A|---------------------------------|5---5---5---5---5---5------------|
E|1-----------1---3-----------3----|---------------------------------|

G|7---5----------------------------|
D|--------7---5--------------------|
A|----------------5----------------|
E|---------------------------------|

G|---------------------------------|-------------|
D|---------------------------------|--------4----| 
A|---------------------------------|5------------|
E|3---------------3----------------|-------------|

Chorus :
G|---------------------------------|---------------------------------|
D|---------------------------------|---------------------------------|
A|------------0-2-3----------------|------------0-2-3-------3---2----|
E|3-------------------0---1---2----|3--------------------------------|

G|---------------------------------|----------------7---5------------|
D|---------------------------------|------------7-----------7--------|
A|----------------3---3---3--------|5---5---5-------------------5----|
E|3---3---3------------------------|---------------------------------|

G|---------------------------------|---------------------------------|
D|---------------------------------|---------------------------------|
A|------------0-2-3---3---3--------|------------0-2-3---3---3--------|
E|3--------------------------------|3--------------------------------|

G|---------------------------------|---------------------------------|
D|---------------------------------|---------------------------------|
A|---------0--2---3-----------3----|5-------5-------5-------5--------|
E|3--------------------------------|---------------------------------|

G|----------------7-------\--------|
D|--------4---7--------------------|
A|5---5----------------------------|
E|---------------------------------|

Interlude :
G|---------------------------------|---------------------------------|
D|---------------------------------|--------------------2---3--------|
A|----0---2---3---5---5------------|----0---2---3---5----------------|
E|3--------------------------------|3--------------------------------|

G|---------------------------------|---------------------------------|
D|---------------------------------|--------------------2---3--------|
A|----0---2---3---5---5------------|----0---2---3---5----------------|
E|3--------------------------------|3--------------------------------|

G|------------------------|
D|3-------3-------3-------|*6 bar instead of 8 
A|------------------------|
E|------------------------|

Chorus :
G|---------------------------------|---------------------------------|
D|---------------------------------|---------------------------------|
A|------------2---3----------------|------------2---3---3---5---3----|
E|3-------------------0---1---2----|3---3---3------------------------|

G|---------------------------------|---------------------------------|
D|---------------------------------|------------------------------5--|
A|------------0-2-3----------------|--------2-------3-------3-h-5----|
E|3-------------------0---1---2----|3--------------------------------|

G|---------------------------------|---------------------------------|
D|---------------------------------|---------------------------------|
A|------------2---3----------------|------------2---3----------------|
E|3---3---------------0---1---2----|3---3---3-----------0---1---2----|

G|---------------------------------|---------------------------------|
D|---------------------------------|---------------------------------|
A|------------0-2-3-------3--------|--------2-------3----------------|
E|3---3----------------------------|3-------------------0---1---2----|

G|---------------------------------|---------------------------------|
D|---------------------------------|------------------------------5--|
A|--------2-------3----------------|--------2-------3---3---3-h-5----|
E|3-------------------0---1---2----|3--------------------------------|

G|---------------------------------|---------------------------------|
D|---------------------------------|---------------------------------|
A|--------2-------3----------------|----0---2---5---3---3---3---3----|
E|3-------------------0---1---2----|3--------------------------------|

G|---------------------------------|---------------------------------|
D|---------------------------------|---------------------------------|
A|--------2-------3---3---3---5----|--------0---2---3----------------|
E|3---3----------------------------|3---3---------------0---1---2----|

Outro :
G|---------------------------------|---------------------------------|
D|---------------------------------|--------------------2---3--------|
A|----0---2---3---5---5------------|----0---2---3---5----------------|
E|3--------------------------------|3--------------------------------|
Suggest correction
Give kudos to tab author, rate the tab!
1 2 3 4 5
comments
print report bad tab
guest
You may want to rate the tab now too:
select rating
Wanna post a correction for this tab? Suggest correction