Oops, an error
Loading. Please wait.

Every Night Chords

version 2
version 2

Whole song

Interactive

29,974 views 153 this week
5 commentsread comments
1 2 3 4 5
x 34
add to favorites
launch autoscroll
font size
0
reset
transpose
0
reset
simplify chords
display chords
guitar tuner
Autoscroll
slow
fast
+/-
esc
set tempo
stop
Help us to improve Ultimate-Guitar.com Take our survey!
×
Author
Difficulty
intermediate
Every Night - PAUL MCCARTNEY - MCCARTNEY (1970)


EVERY NIGHT
(c) 1970 Northern Songs Ltd.


Chords used:
       EADGBE
E7:    002010
Bm7/E: 024232
A:     x02220
F#m:   244222
Bm:    224432
F#7:   242322
B:     224442
G#m:   x66444
F#m7:  242222
E:     022100
B7:    x21202


[Intro/Riff]

E|--3s4-4-4-4-4-4-4-4-------------------------------------------|
B|--0-0-0-0-0-0-0-0-0-------------------------------------------|
G|--3s4-4-4-4-4-4-4-4-------------------------------------------| x2
D|--------------------------------------------------------------|
A|--------------------------------------------------------------|
E|--------------------------------------------------------------|


[Verse]

E7                                                 Bm7/E
Every night I just wanna go out, get out of my head
E7                                                 Bm7/E
Every day I don't want to get up, get out of my bed
A       F#m             Bm
 Every night I want to play out
F#7                        B  A  G#m F#m E
 And every night I want to do oo oo  oo  oo
E                                              F#m7
But tonight I just want to stay in and be with you
B7                RIFF
 And be with you


[Chorus]

E     A     E     B7
Oo oo oo oo oo oo oo oo
E     A     E     B7     RIFF
Oo oo oo oo oo oo oo oo


[Verse]

Every day I lean on a lamp post, I'm wasting my time
Every night I lay on a pillow, I'm resting my mind
Every morning brings a new day
Every night that day is through oo oo oo oo
But tonight I just want stay in and be with you
And be with you


[Chorus]

E     A     E     B7
Oo oo oo oo oo oo oo oo
E     A     E     B7     RIFF
Oo oo oo oo oo oo oo oo


[Ending]

E|--3s4-4-4-4-4-4-4-4-3s4-4-4---------------------------------|
B|--0-0-0-0-0-0-0-0-0-0-0-0-0-0-0-0-0-------------------------|
G|--3s4-4-4-4-4-4-4-4-3s4-4-4-4-3-2-1-------------------------|
D|--0-0-0-0-0-0-0-0-0-0-0-0-0-0-0-0-0-------------------------|
A|------------------------------------------------------------|
E|------------------------------------------------------------|


NOTE:

"This came from the first two lines which I've had for a few
years. They were added to in 1969 in Greece on holiday." (Paul
McCartney) 
Suggest correction
comments
print report bad tab
5 comments total. Showing first comments.
0 reply
znai 10 Sep 30, 2015 05:14 AM

I think the chords are bang on. But the chord chart is off. I think this is correct?

EADGBE
E7: 020100
Bm7/E: 024232
A: x02220
F#m: 244222
Bm: 224432
F#7: 242322
B: 799877 (for the do oo oo oo oo sequence)
A: 577655
G#m: 466444
F#m: 244222
F#m7: 242222
E: 022100
B7: x21202

0 reply
Aberinkulas 118 Oct 15, 2015 10:40 PM

You're awesome for this

0 reply
steviebmusicman 10 Dec 18, 2015 04:22 PM

brilliant tab thanks for your work

guest
You may want to rate the tab now too:
select rating
Wanna post a correction for this tab? Suggest correction